Guitar Tabs
song title    band name

Join Us Today!

Don't strum alone...
be a part of the largest online Christian music community. Browse thousands of guitar tabs and chat w/ musicians like yourself.


It's Free!

This tab has been rated a 5.00 out of 5 for accuracy. (1 vote)Sorry, but you must be logged in to rate this tab.
Click here to log-in, or you can click here to register.
(Registration is free)

All songs owned by corresponding publishing company. If you make copies of any song on this website, be sure to report your usage to CCLI.
Submitted by: Adam K

P.O.D.-This Time
From:Testify
Copyright  2006 Atlantic Records
Drop C Tuning C-G-C-F-A-D

palm mute=...etc.
v=vibrato
~=let it ring
b=bend
h=hammer on

Intro
Gtr. 1
A[-10-----10-----10----11-----11-----11-------]
F[----10-----10-----10----12-----12-----12----]x2
C[-------7------7------------8------8---------]
   ...........................................
Then
Gtr. 1
A[-10-----10-----10----11-----11-----11-------]
F[----10-----10-----10----12-----12-----12----]x4
C[-------7------7------------8------8---------]
   ...........................................
Gtr. 2
A[-10--10--10--10--10----11--11--11--11--11-----]
F[---10--10--10--10---10---12--12--12--12---12--]x4

Verse 1
Gtr. 1
A[-10-----10-----10----11-----11-----11-------]
F[----10-----10-----10----12-----12-----12----]x4
C[-------7------7------------8------8---------]
   ...........................................
Gtr. 2
A[-10--10--10--10--10----11--11--11--11--11-----]
F[---10--10--10--10---10---12--12--12--12---12--]x4

Pre-Chorus
Gtr. 1
A[-10-----10-----10----11-----11-----11-------]
F[----10-----10-----10----12-----12-----12----]x2
C[-------7------7------------8------8---------]
   ...........................................
Gtr. 2
A[-10--10--10--10--10----11--11--11--11--11-----]
F[---10--10--10--10---10---12--12--12--12---12--]x2

Gtr. 3
C[--------------------5/5---5/5--------------------------5/5-----------]
G[-5/5/3/3/5/5/3/3-------3/3---3/3----5/5/3/3/5/5/3/3-------3/3--------]
C[---------------------------------------------------------------5v----]
   ...............    ............   ................    .......

Chorus
Gtr. 3
C[-3----12----12----10----]
G[-3----10----12-----7----]x2
C[-3----10----12-----7----]

Gtr. 2
A[-10~~~~8~~~~10~~~~13/10-13/10-13/10--]x2

Gtr. 1
D[-15--15--15--12--10--10--13--12--10--8--8--8--]x2
Then
Gtr. 3
C[-15----8----]
G[-13----8----]
C[-13----8----]

Gtr. 2
A[-11~~~~6~~~~--]

Gtr. 1
D[-15/15/15-13--11-10/10/10-8--6-5~~~~--]

Post-Chorus
Gtr. 1
A[-10-----10-----10----11-----11-----11-------]
F[----10-----10-----10----12-----12-----12----]x2
C[-------7------7------------8------8---------]
   ...........................................
Gtr. 2
A[-10--10--10--10--10----11--11--11--11--11-----]
F[---10--10--10--10---10---12--12--12--12---12--]x2

Verse 2
(Same as Verse 1)

Pre-Chorus

Chorus 2
Gtr. 3
C[-3----12----12----10----]
G[-3----10----12-----7----]x4
C[-3----10----12-----7----]

Gtr. 2
A[-10~~~~8~~~~10~~~~13/10-13/10-13/10--]x4

Gtr. 1
D[-15--15--15--12--10--10--13--12--10--8--8--8--]x4
Then
Gtr. 3
C[-15----8----]
G[-13----8----]
C[-13----8----]

Gtr. 2
A[-6~~~~~~~~--]

Gtr. 1
D[-15/15/15-13--11-10/10/10-8--6-5~~~~--]

Bridge
Gtr. 1
D[------------------------------------------12v~~15v~~18-20-22sd----]
A[-------------8b-8----10--8h10/11-13--15v~~------------------------]
F[-7v~~5/7/8v~~---8----12-------------------------------------------]
Gtr. 2
A[-10~~~~11~~~~--]x4

A[-11~~~~--]

Chorus 3
Gtr. 3
C[-3----12----12----10----]
G[-3----10----12-----7----]x4
C[-3----10----12-----7----]

Gtr. 2
A[-10~~~~8~~~~10~~~~13/10-13/10-13/10--]x3

A[-10~~~~~~~~~~~~~~~~~~~~~~~~~~~~~~~~--]

Gtr. 1
D[-15--15--15--12--10--10--13--12--10--8--8--8--]x4
Then
Gtr. 3
C[-15----8----]
G[-13----8----]
C[-13----8----]

Gtr. 2
A[-11~~~~~~~~--]

Gtr. 1
D[-15/15/15-13--11-10/10/10-8--6-5~~~~--]

Outro
Gtr. 1
A[-10--10--10--10--10----11--11--11--11--11-----]
F[---10--10--10--10---10---12--12--12--12---12--]x8 fade out

Gtr. 2
A[-10~~~~~~~~~~~~~~~(for the rest of the song)--] fade out

Gtr. 3
D[-10-----10-----10---10-10-10-10-10-10----]
A[----10-----10----10----10----10----10----]x8 fade out
F[-------7------7--------------------------]
  .........................................


Tabbed by Adam K

Comments about this tab

tl_guitarnut - 2006-07-03

flawless, Adam, are you in a band? cause' your really good!


Adam K - 2006-07-11

No I'm not in a band. But I wish I was.


tl_guitarnut - 2006-07-11

me neither, but it's still fun to wish I was


trmcello24 - 2006-07-13

all of us guys not in a band should start a band. the would be freakin awesome, the only problem is that all of us play guitar.


tl_guitarnut - 2006-07-15

ya that would be crazy, but since we all live far away from each other, we'd have to move closer


Add a comment/correction

Complimentary Christian Ringtones
Dadamobile and CGR have teamed up to bring your favorite Christian artists right to your phone. Sign up today and get 10 complementary ringtones!
Tab Country
Did you know CGR has a sister site w/ country guitar tabs? Well we do! Its called Tab Country. It has a great archive with a lot of country tabs.
Rockin Tabs
Are you looking for a site that has rock guitar tabs? Then Rockintabs.com is the place for you. It is a budding site with many rock guitar tabs. Submit your tab today.
Tab Gallery
Tab Gallery has a compilation of christian, rock, and country tabs all in one place. Come visit us.