Guitar Tabs
song title    band name

Join Us Today!

Don't strum alone...
be a part of the largest online Christian music community. Browse thousands of guitar tabs and chat w/ musicians like yourself.


It's Free!

This tab has been rated a 5.00 out of 5 for accuracy. (3 votes)Sorry, but you must be logged in to rate this tab.
Click here to log-in, or you can click here to register.
(Registration is free)

All songs owned by corresponding publishing company. If you make copies of any song on this website, be sure to report your usage to CCLI.
Submitted by: steve.colburn

Jeremy Camp-- "This Man"
Album: Restored

This is the correct intro as per the video "Restored".  It is fast paced, 
but you can't help but get into it! I liked the other versions, but they 
don't match the video exactly. Make sure and use a pick when picking the 
"A" string each time.  Use your ring finger and middle finger to 
pick the "B" string & "G" string each time.  It sounds very clear with the pick!!!     

Standard Tuning

Intro:

E--------------------------------------
B---O------O------O---O-----O------O---
G------O-----O----------O-----O--------    (X2)
D-------------------------------------- 
A-3------5-----5----2-----3------3-----
E--------------------------------------

(on the 3rd time around)
E-----------------------------------------------------------------
B---O-----O-----O---O-----O-----O---O-----O-----O---O-----O-----O-
G-----O-----O---------O-----O---------O-----O---------O-----O-----   (1x)
D-----------------------------------------------------------------
A-3-----5-----5---7-----7-----7---5-----5-----5---5-----5-----5---
E-----------------------------------------------------------------

E--------------------------------------
B---O------O------O---O-----O------O---
G------O-----O----------O-----O--------    (X2)
D-------------------------------------- 
A-3------5-----5----2-----3------3-----
E--------------------------------------

E-----------------------------------------------------------------
B---O-----O-----O---O-----O-----O-------0-----0-----O-------------
G-----O-----O---------O-----O---------0---0-----0-----O-----------  (end of intro)
D-----------------------------------0-------0-----0-----O---------
A-3-----5-----5---7-----7-----7---5-----------------------5-3-----
E-----------------------------------------------------------------

This is the most accurate version to date, and I want to give all 
the credit to Jeremy Camp; and further more "Jesus Christ"

Comments about this tab

E-rock - 2006-07-08

yep this looks bout exacly right. i saw jeremy in concert yesterday, so i should kno right? haha(cant say for sure cuz i wasnt sitting real close)nice job pal


brain_dead_1st - 2006-07-13

U fail to mention the capo 1st fret, otherwise this tab sound so so wrong, :) well tabbed elsewise tho, ta me duck


jdill - 2006-08-15

good tip about the picking, i never would have thought to do that. Also, in your defense, you don't need Capo I if you're playing along with the Live Unplugged version. But honestly, who performs with the cd anyway?...just use what ever fits your voice.


Guitars4ever9 - 2007-02-26

great job tabbin it man
i just wish i could play it fast enough!!!!!!!!lol


Jeremycampfreak - 2008-07-21

Ya man this is totally correct. Some of the other versions don't have the timing right. I found that out when I printed theirs... lol. If someone else hadn't have figured that out I would have said something for sure but.... well done anyway.


Add a comment/correction

Complimentary Christian Ringtones
Dadamobile and CGR have teamed up to bring your favorite Christian artists right to your phone. Sign up today and get 10 complementary ringtones!
Tab Country
Did you know CGR has a sister site w/ country guitar tabs? Well we do! Its called Tab Country. It has a great archive with a lot of country tabs.
Rockin Tabs
Are you looking for a site that has rock guitar tabs? Then Rockintabs.com is the place for you. It is a budding site with many rock guitar tabs. Submit your tab today.
Tab Gallery
Tab Gallery has a compilation of christian, rock, and country tabs all in one place. Come visit us.