Guitar Tabs
song title    band name

Join Us Today!

Don't strum alone...
be a part of the largest online Christian music community. Browse thousands of guitar tabs and chat w/ musicians like yourself.


It's Free!

This tab has been rated a 4.00 out of 5 for accuracy. (4 votes)Sorry, but you must be logged in to rate this tab.
Click here to log-in, or you can click here to register.
(Registration is free)

All songs owned by corresponding publishing company. If you make copies of any song on this website, be sure to report your usage to CCLI.
Submitted by: krutchfan66

Song: Zero
Artist: Hawk Nelson
Album: Smile, It's the End Of The World
Tabber:krutchfan66

Album just came out yesterday so i didnt think ne tabs would be up yet
but yea its not up so im tabbin the chords/tab for u. hope i help

Verse/Chorus:
C   G    F     G

Prechorus:

A    G     C     D

Chorus
Verse
Prechorus
Chorus
Then the bridge goes something like this i know its not exact but this works
to get the main idea of it.

B---------888---------------
G-000-555-----555--77-5h7---

Chorus
Then theres a solo but im too lazy to figure it out for u guys lol dont you feel loved?
just play the chorus over it
and then the last chord is a very very very very very very very very very heavy,distorted

C<------------

Comments about this tab

Hawk_Nelson89 - 2006-04-17

Will someone please tab the solo to this song!!!!!!!!!!!!!!!!!!!!


music_dude01 - 2006-04-21

You want the tab for this song I'll try to tab it.


ruajcfreak14 - 2006-04-21

my guitar teacher can just listen to any song and basically play it after he hears it, when he was figuring out the chords he also played the solo tabs, i'll see if i can get him to write them out for me


slacky262 - 2006-04-23

alright so the solo for this song is...



h-hammer-on
p-pull-off

theyre mostly just for phrasing...makes it easier to play


e|---------------|-----------------|------------------------------------|
B|--1------1--2--|-(2)-----1--3h5--|--1------1--3-----------------------|
G|-----0h2-------|-----0h2---------|-----0h2-------4h5p4----------------|
D|---------------|-----------------|---------------------5h7p5----------|
A|---------------|-----------------|----------------------------5h7p5---|
E|---------------|-----------------|------------------------------------|

e|---------------|-----------------|---------------------------------3----|
B|--1------1--2--|-(2)-----1--3h5--|--1------1--3---------------1h3-----3-|
G|-----0h2-------|-----0h2---------|-----0h2-------4h5p4------------------|
D|---------------|-----------------|---------------------5h7p5------------|
A|---------------|-----------------|--------------------------------------|
E|---------------|-----------------|--------------------------------------|


e|-----|
B|--1--|
G|-----|
D|-----|
A|-----|
E|-----|

its probably best if for the sixteenth notes you barre on the fifth fret and then do the hammer-ons and pull-offs off of the barre



lemme know how it sounds


Hawk_Nelson89 - 2006-04-25

sorry man but that solo tab sucks, but nice try though


fenderrock - 2006-04-25

some1 really needs 2 post the solo 4 this song.


guitarhobbit - 2006-04-30

i think the solo might go something like this, but it doesn't seem quite right... close maybe...


e----------------------------------------------------
B-1--3--5--5-----1--3--5--1-----------------------
G----------------------------------------------------
D----------------------------------------------------
A----------------------------------------------------
E----------------------------------------------------



e----------------------------------------------------
B-1--3--5--5--3------------------------------------
G-----------------5--2------------------------------
D-------------------------3--5----------------------
A---------------------------------3-------------------
E----------------------------------------------------


e----------------------------------------------------
B-1--3--5--5-----1--3--5--1-----------------------
G----------------------------------------------------
D----------------------------------------------------
A----------------------------------------------------
E----------------------------------------------------



e----------------------------------------------------
B-1--3--5--5--3------------------------------------
G-----------------5--2------------------------------
D-------------------------3--5----------------------
A--------------------------------5/7--3-------------
E----------------------------------------------------


fenderrock - 2006-05-01

um.......im not sure that right cause im playing the cd right now and it sounds
i lil wrong. but nice try.


Martyr's Island - 2006-05-06

Don't worry, I've got a tab coming along right now, and I think it's a little bit more accurate than these two, although they're both fairly good.


woot_21 - 2006-06-10

Here's the solo:

e|--------------------------------------|
B|--------------------------------------|
G|-5h7p5---7~-5h7p5---7/9-5~------------|
D|-------5----------5-------------------|
A|--------------------------------------|
E|--------------------------------------|


e|--------------------------------------|
B|--------------------------------------|
G|-5h7p5---7~-4h5p4---------------------|
D|-------5----------7-5-7---------------|
A|------------------------5~------------|
E|--------------------------------------|


e|--------------------------------------|
B|--------------------------------------|
G|-5h7p5---7~-5h7p5---7/9-5~------------|
D|-------5----------5-------------------|
A|--------------------------------------|
E|--------------------------------------|


e|--------------------------------------|
B|--------------------------------------|
G|-5h7p5---7~-4h5p4--------7/9-7~-7/5-5-|
D|-------5----------7-5-7---------------|
A|--------------------------------------|
E|--------------------------------------|

~ = bend

That should be right, i am going to make a new one for this song, because a couple of other things were wrong with it, and i am gonna give more detail as to how to play the verse and what the chords are.

- woot_21


guitarchic2991 - 2006-06-19

can someone please type this out with the chords above the words where they change, plz.


jim4christ - 2006-06-24

they cant, look at the forums... its copyright stuff
but ill email it to you if you give me your email


hawknelsongurl - 2006-07-30

i was listenin' to the song and the chorus has 2 guitars, one playing the power chords and the other doing a strum pattern...does anyone know the strum pattern?


Add a comment/correction

Complimentary Christian Ringtones
Dadamobile and CGR have teamed up to bring your favorite Christian artists right to your phone. Sign up today and get 10 complementary ringtones!
Tab Country
Did you know CGR has a sister site w/ country guitar tabs? Well we do! Its called Tab Country. It has a great archive with a lot of country tabs.
Rockin Tabs
Are you looking for a site that has rock guitar tabs? Then Rockintabs.com is the place for you. It is a budding site with many rock guitar tabs. Submit your tab today.
Tab Gallery
Tab Gallery has a compilation of christian, rock, and country tabs all in one place. Come visit us.