Guitar Tabs
song title    band name

Join Us Today!

Don't strum alone...
be a part of the largest online Christian music community. Browse thousands of guitar tabs and chat w/ musicians like yourself.


It's Free!

This tab has been rated a 3.20 out of 5 for accuracy. (5 votes)Sorry, but you must be logged in to rate this tab.
Click here to log-in, or you can click here to register.
(Registration is free)

All songs owned by corresponding publishing company. If you make copies of any song on this website, be sure to report your usage to CCLI.
Submitted by: krutchfan66

Band: Hawk Nelson
Song:Everything You Ever Wanted
Album: Smile, It's The End Of The World
Tabber: Krutchfan66

nobodys tabbed this yet! wow its been up on purevolume for a while so 
yah 
here it is

Intro:Guitar 1
e-----5--------
B-------5------
G---5--5-5-----
D--5-5---------
A-3------------
E--------------
guitar one keeps playing that til verse

While guitar ones playing that- guitar two is palm muting

g-999999999999999 i dont know how many times


Intro(where they start rawkoutloud) Guitar 2:

e-------------------------------------
B-------------------------------------
G-55555555-22222222-------------------
D-55555555-22222222-33333333-55555555-
A-33333333-00000000-33333333-55555555-
E-------------------11111111-33333333-

Verse:(Either Guitar)
e------------
B------------
G--5---7-----
D--5-3-7-5--- listen for changes
A--3-3-5-5---
E----1---3---
pm . . . .

Other Guitar:

G--5555-55-55-77-55-- Do this until prechorus
pm ....    ..

Pre Chorus: (Guitar 1)
e---------------------------------------
B---------------------------------------
G---9-----9-----10------10--------------
D--9-9---9-9--10--10--10--10------------x2
A-7-----7----8-------8------------------
E---------------------------------------

(Guitar 2)

D-2~~--3~~
A-2~~--3~~x2
E-0~~--1~~

Chorus: (Guitar 1)

e-----5--------
B-------5------
G---5--5-5-----
D--5-5---------
A-3------------
E--------------

Guitar 2:

e-------------------------------------
B-------------------------------------
G-55555555-22222222-------------------
D-55555555-22222222-33333333-55555555-
A-33333333-00000000-33333333-55555555-
E-------------------11111111-33333333-

Verse 2:(NO PALM MUTED PART)Til The Bass goes through it once

the riffs are the same

Prechorus
Chorus

Bridge:

Guitar 1:

G--12b~---9b~----   (b=bend)

Guitar 2:

e------------------
B------------------
G------------------
D-7--5--3-----5---- Just listen for changes if youre confused...
A-7--5--3-----5----
E-5--3--1-----3----

Then its chorus just holding out the chords..then ur all set.thats all hope i helped..

Comments about this tab

jelloman - 2006-04-14

Great job! I totally love this song, i'm so glad somone tabbed it. All in all it sounds great, i can't do the whole intro part b/c my fingers aren't quite fast enough, but what i can is accurate. Great job and keep them comin.


guitar_freakk09 - 2006-04-15

the intro sounds alittle off i think this sounds better.


E--------------------
B---------8-8--------
G-----5-5-----7-7----
D-5-5----------------
A--------------------
E--------------------

guitar_freakk09


krutchfan66 - 2006-04-15

i tabbed alot more songs but i dk if i wanna tab em so if you want NE of the songs from the new album i have them ALL tabbed


simmondsboy - 2006-04-16

sOMEONE pLS TAB oNE THING lEFT


relient nelson - 2006-04-17

Hey SimondsBoy, I just submitted "The One Thing I have Left" so it ought to be up pretty soon. Check it out


simmondsboy - 2006-04-17

thanx man












simmondsboy - 2006-04-17

thanx man












simmondsboy - 2006-04-17

thanx man












BlackSaphire909 - 2006-04-17

Great tab man I with guitarfreak though on the intro


jelloman - 2006-04-17

Ok ya that intro works alot better, thnx


krutchfan66 - 2006-04-19

sry i messed up the intro. the high e string is supposed to be on the 3rd fret not the 5th


bronxbomber - 2006-04-20

actually, this is the correct intro:

e---------3-----
B------------3--
G-----5--------- 2x
D---5---5--5--5-
A-3-------------
E---------------

There's also a bit of delay when playing this. I'm 100% sure this is correct.


guitar_freakk09 - 2006-04-22

both intro's work good.


Hawk_Nelson89 - 2006-04-24

Hey i got the real intro!!!!!!!!!!!

e-----------3--3------------------------------------
b-----------------3---------------------------------
g------5--------------5-----------------------------
d----5---5------------------------------------------
a--3------------------------------------------------
e---------------------------------------------------


fenderrock - 2006-04-25

i think hawknelson_89 is right. i played what he put up and it sounds right.


good job.


guitar_freakk09 - 2006-04-29

i think this works better.

E------------3-3------------
B----------------3-3--------
G---------------------------
D-------5-------------------
A-----5---5-----------------
E---3-----------------------


Hawk_Nelson89 - 2006-04-29

thats ones close but mine is the right way, theres another transition at the end.


guitar_freakk09 - 2006-04-29

oh well they all sound good to me.


Hawk_Nelson89 - 2006-05-02

This is dumb i made a tab of this song the right way and its been a while since i posted it and it still hasnt been on here!!!!! Anyone know how long it takes lemme know!!!


guitar_freakk09 - 2006-05-04

i put up a superchick tab and it took up to 3 weeks.


legendary_chin - 2006-05-04

i love this song, this band... keep tab'n man!


Cheese_Monkey - 2006-05-08

haha that's nothing, i put up a switchfoot tab which took 4 months!


Hawk_Nelson89 - 2006-05-09

thats dumb whoever does the tabs needs to movie it or lose it!!!


Hawk_Nelson89 - 2006-05-09

thats dumb whoever does the tabs needs to move it or lose it!!!


relient nelson - 2006-05-15

Yah, I have submitted two more Hawk tabs. "Is Forevor Enough" and "Head On Collision," and they haven't come up and I've waited more than three weeks.


tl_guitarnut - 2006-05-27

Yeah, I've tabbed Nothing Left to show, and It's Over and their still not up yet


Kezi - 2006-07-26

hey i was wondering if anyone could just post the chords to this song... cause it rocks and i'm not great at readin tabs... if u could taht would rock! thanks


Frankie Machart - 2008-03-27

Well tabs is definently some thing you need to learn so at least try to learn how to read it but start on a easyer song


Add a comment/correction

Complimentary Christian Ringtones
Dadamobile and CGR have teamed up to bring your favorite Christian artists right to your phone. Sign up today and get 10 complementary ringtones!
Tab Country
Did you know CGR has a sister site w/ country guitar tabs? Well we do! Its called Tab Country. It has a great archive with a lot of country tabs.
Rockin Tabs
Are you looking for a site that has rock guitar tabs? Then Rockintabs.com is the place for you. It is a budding site with many rock guitar tabs. Submit your tab today.
Tab Gallery
Tab Gallery has a compilation of christian, rock, and country tabs all in one place. Come visit us.