Guitar Tabs
song title    band name

Join Us Today!

Don't strum alone...
be a part of the largest online Christian music community. Browse thousands of guitar tabs and chat w/ musicians like yourself.


It's Free!

This tab has been rated a 4.00 out of 5 for accuracy. (1 vote)Sorry, but you must be logged in to rate this tab.
Click here to log-in, or you can click here to register.
(Registration is free)

All songs owned by corresponding publishing company. If you make copies of any song on this website, be sure to report your usage to CCLI.
Submitted by: YankBoy19888

Song: Judas Kiss
Band: Petra
Album: More Power To Ya (1982)
written by Bob Hartman
tabbed by YankBoy19888

This is the way Bob Hartman played it when I saw him during the Farewell
tour.

e|---3-6-3---------3---------3-6-3---------6-3---|
B|---------3-6-3-6---3-------------3-6-3-6-------|
G|---------------------5-3-----------------------|
D|-------------------------5---------------------|
A|-----------------------------------------------|
E|-----------------------------------------------|

This is John Lawry's keyboard part that he played here and there thoughout
the song.  It's for the keyboard but it sounds sweet on the guitar.

e|----------------------------------------|
B|-----3-1-3---3---------3-1-3----3-------|
G|---0-------3---2-3---0-------3----2-3---|
D|----------------------------------------|
A|----------------------------------------|
E|----------------------------------------|

e|----------------------------------------|
B|-----3-1-3---3--------------------------|
G|---0-------3---2-3---3-2-3-0------------|
D|-----------------------------0---0------|
A|-------------------------------3--------|
E|-----------------------------------3----|

Comments about this tab

RobH - 2008-09-04

Re the intro riff: this is a fairly advanced riff not for beginners (like me).
I bought the song from iTunes, converted it to MP3 and slowed it right down so I could hear everything that was going on in that intro riff... it's a pretty busy one!

One thing I picked up was the open G string being muted and picked on the off-beat and being used a bit more throughout the riff. From what I could work out, the first little bit of the opening riff goes like this:

e|-3-6p3-----3-------3--------3--------|
B|-3-----3-3---3h6-6---3------3--------|
G|-0----0--0-------0-----5p3--0--------|
D|---------------------------5---------|
A|-------------------------------------|
E|-------------------------------------|


RobH - 2008-09-04

Blast that formatting! Let's see if tis looks better...


e|-3-6p3-----3-------3--------3--------|
B|-3-----3-3---3h6-6---3------3--------|
G|-0----0--0-------0-----5p3--0--------|
D|---------------------------5---------|
A|-------------------------------------|
E|-------------------------------------|


jguitarman - 2008-11-16

Check out

http://www.youtube.com/watch?v=WGBNZrZ3n5o

Video from 1984 that gives an awesome shot of how he's playing it. I would assume it's true to the record since it's from the same time period. It's different than any of the tabs here so far. Starts in 3rd position, slides down to 1st, then up to 6th to end it. I might tab it out if I get time, but if someone beats me to it, great. I haven't exactly figured out the bottom part though.


Add a comment/correction

Complimentary Christian Ringtones
Dadamobile and CGR have teamed up to bring your favorite Christian artists right to your phone. Sign up today and get 10 complementary ringtones!
Tab Country
Did you know CGR has a sister site w/ country guitar tabs? Well we do! Its called Tab Country. It has a great archive with a lot of country tabs.
Rockin Tabs
Are you looking for a site that has rock guitar tabs? Then Rockintabs.com is the place for you. It is a budding site with many rock guitar tabs. Submit your tab today.
Tab Gallery
Tab Gallery has a compilation of christian, rock, and country tabs all in one place. Come visit us.