Guitar Tabs
song title    band name

Join Us Today!

Don't strum alone...
be a part of the largest online Christian music community. Browse thousands of guitar tabs and chat w/ musicians like yourself.


It's Free!

Audio Adrenaline - Rest Easy

This tab has not yet been rated for accuracy.Sorry, but you must be logged in to rate this tab.
Click here to log-in, or you can click here to register.
(Registration is free)

All songs owned by corresponding publishing company. If you make copies of any song on this website, be sure to report your usage to CCLI.
#----------------------------------PLEASE NOTE--------------------------------#
#This file is the author's own work and represents their interpretation of the#
#song. You may only use this file for private study, scholarship, or research.#
#-----------------------------------------------------------------------------#
Author/Artist: Audio Adrenaline
Title: Rest Easy
Album: Live Bootleg Version
Transcribed by: Matt Gates
Email: aslane@juno.com  or aslan22@hotmail.com


I had real difficulty in figuring out some of these
chords.  I'm not real sure about the D chords.  When I
started this I was debating about whether it was in 
C or G.  G sounded a little bit better so that's how I
tabbed it out.  The solo, surprisingly, does not seem to
be in the same key.  I'm not sure what key it is in,
because I couldn't figure out which scale pattern it
was using.  It is probably in some weird Mode that I
don't know, but it sounds pretty much like the solo
on the album so I'm not complaining.  Please email me with 
corrections, comments, or questions especially if you
can tell me if I'm right about the solo or the D chords.
I've only been playing for about 4 years and I just started
figuring out songs and composing my own so any
input would be greatly appreciated.  Oh, by the way
play this on an acoustic.  It doesn't sound nearly as
good on an electric.  


-3----------3----------0-----------2-----------3------0------------------3----
-3----------3----------1-----------3-----------3------3------3-----------3----
-0----------0----------2-----------2-----------2------2------2-----------0----
-0----------2----------2-----------0-----------0------0------0-----------2----
-2----------3----------0-------------------------------------x-----------2----
-3-----------------------------------------------------------2----------------
G         C9          Am          D         Dsus   Dsus?   D/F#        Em7   


----------------3-3-------------3-3--------------3--3---------3-3-------------
----------------3-3-------------3-3--------------3--3---------3-3-------------
----------------0-0-------------0-0--------------0--0---------0-0-------------
----------0-----0-0-------0-----0-0------0-------0--0----0----0-0-------------
----------2---------------2--------------2---------------2----------3/5-3-----
----------3---------------3--------------3---------------3--------------------
Intro: I'm not going to put all of the rhythm strokes because that would     


----3--3---------------3----3-------------3---3---|---------------------------
----3--3---------------3----3-------------3---3---|---------------------------
-0--0--0---------0-----0----0-------0-----0---0---|---------------------------
-2--2--2---------2-----2----2-------2-----2---2---|---------------------------
-3---------------3------------------3-------------|--3--3/5---3---------------
--------------------------------------------------|--------------3------------
take too long so listen to the CD to get it right           repeat to bar    


--------------------|--------------0-----------------3-------------------3----
--------------------|--------------1-----------------3-------------------3----
--------------------|--------------2-----------------0-------------------0----
--------------------|--------------2-----------------2-------------------0----
--------------------|--3---2---0---0-----------------3-------------------2----
--------------------|----------------------------------------------------3----
then skip to here  Verse 1:   One more mile till I lay to rest   I have put  


---------------------------3-----------0----------------------------3---------
---------------------------3-----------1----------------------------3---------
---------------------------0-----------2----------------------------0---------
---------------------------2-----------2----------------------------2---------
---------------------------3-----3-2---0----------------------------3---------
------------------------------------------------------------------------------
myself through this rigid test   But the mile has never ended  no distance   


------------------------2----------------------------3--------2---------------
------------------------3----------------------------3--------3---------------
------------------------2----------------------------2--------2---------------
------------------------0----------------------------0--------0---------------
------------------------------------------------------------------------------
------------------------------------------------------------------------------
has been gained       I do not see greatness,  I wanted to obtain            


----3----------------3---------------3----------------------------------------
----3------3---------3---------------3----------------------------------------
----0------2---------0---------------0----------------------------------------
----0------0---------2---------------0----------------------------------------
----2------x---------2---------------2----------------------------------------
----3------2-------------------------3----------------------------------------
  Where   is  my  embrace  from the race that I have run?                     


---------3------------3-----------0---------------2---------------------------
---------3------------3-----------1--------3------3---------------------------
---------0------------0-----------2--------2------2---------------------------
---------2------------2-----------2--------0------0---------------------------
---------3------------2-----------0--------x----------------------------------
-------------------------------------------2----------------------------------
I have kept a steady pace, but still I have not won                          


------------3-----------------3------------------3----------------------3--2--
------------3-----------------3------------------3----------------------3--3--
------------0-----------------0------------------0----------------------2--2--
------------0-----------------2------------------2----------------------0--0--
------------2-----------------2------------------3----------------------------
------------3-----------------------------------------------------------------
  Chorus: Rest easy, have no fear, I love you perfectly love drives out fear  


-------------------3------------------3----------3-------------3--------------
-------------------3------------------3----------3--3----------3--------------
-------------------0------------------0----------0--2----------0--------------
-------------------0------------------2----------2--0----------0--------------
-------------------2------------------2----------3--x----------2--------------
-------------------3--------------------------------2----------3--------------
I'll take your burden, you take My grace, rest easy, in My embrace           


--3--------------0--------------------3-------------------3-------------------
--3--------------1--------------------3-------------------3-------------------
--0--------------2--------------------0-------------------0-------------------
--0--------------2--------------------2-------------------0-------------------
--2---3--2---0---0--------------------3-------------------2-------------------
--3-------------------------------------------------------3-------------------
     Verse 2: I am such a sinner, I fear my evil ways I fear my imperfection  


--3----------------------------0--------------------3-------------------------
--3----------------------------1--------------------3-------------------------
--0----------------------------2--------------------0-------------------------
--0----------------------------2--------------------2-------------------------
--2-----------------3---2---0--0--------------------3-------------------------
--3---------------------------------------------------------------------------
I fear my final days   I just want to control and snap this rusty chain      


---2---------------------------3-------------2--------------------------------
---3---------------------------3-------------3--------------------------------
---2---------------------------2-------------2--------------------------------
---0---------------------------0-------------0--------------------------------
------------------------------------------------------------------------------
------------------------------------------------------------------------------
drop my heavy burden,    it seems to be in vain     Repeat Chorus            


------------------------------------------------------------------------------
-5^---------------------------------------------------------------------------
-5^-------7--7-7-----------10-------------------------------------------------
-5^----------------10--10------10--10-10-10--10/12--13---12--12-12-12\10------
------------------------------------------------------------------------------
------------------------------------------------------------------------------
Solo:                                                                        


------------------------------------|-----------------------------------------
------------------------------------|-----------------------------------------
------------------------------------|-----------------------------------------
-10\8----------8--10--10--8--8--10--|-----------------------------------------
---------8h10-----------------------|-----------------------------------------
------------------------------------|-----------------------------------------
                                     repeat                                   


------------------------------------------------------------------------------
------------------------------------------------------------------------------
--7---7---7---7--7--7----------------------------8---8---8---8---8-8----------
------------------------10-10--10--10--10--10---------------------------------
------------------------------------------------------------------------------
------------------------------------------------------------------------------
I am not a bold man,  even though I want to be  I am just a dreamer          


------------------------------------------------------------------------------
------------------------------------------------------------------------------
-----------------------7---7---7---7---7--7--7--------------------------------
--------------------------------------------------10---10---10---10---10---10-
-------10--10--10---10--------------------------------------------------------
------------------------------------------------------------------------------
with a timid history. Scared of confrontations, I fume all through the nite  


------------------------------------------------------------------------------
--------------------------------------------------------13--13-----13-13------
--8---8---8---8--8--8--8--8--8--8/10-10-10-10-10-10/12----------12-------12---
------------------------------------------------------------------------------
------------------------------------------------------------------------------
------------------------------------------------------------------------------
the world has its hold on me and I just want to fly                          


--------3--------------------3--------------3--------------3-----3-----0------
--------3-----3--------------3--------------3--------------3-----3-----1------
--------0-----2--------------0--------------0--------------0-----0-----2------
--------0-----0--------------2--------------2--------------2-----2-----2------
--------2-----x--------------3--------------2--------------3-----2-----0------
--------3-----2---------------------------------------------------------------
the sky                the sky       is open wide     but I can't fly        


--0--------2--------------------------------3-------------3-------------------
--3--------3--------------------------------3-------------3-------------------
--2--------2--------------------------------0-------------0-------------------
--0--------0--------------------------------2-------------2-------------------
--------------------------------------------3-------------2-------------------
------------------------------------------------------------------------------
no til I step aside      Chorus II:  Rest easy, have no fear,                


---------------3---------------------------------------3----------2-----------
---------------3---------------------------------------3----------3-----------
---------------0---------------------------------------2----------2-----------
---------------2---------------------------------------0----------0-----------
---------------3--------------------------------------------------------------
------------------------------------------------------------------------------
I love you perfectly,  and perfect love drives out fear.                     


-------------------3-----------------3----------3----------------3------------
-------------------3-----------------3----------3--3-------------3------------
-------------------0-----------------0----------0--2-------------0------------
-------------------0-----------------2----------2--0-------------0------------
-------------------2-----------------2----------3--x-------------2------------
-------------------3-------------------------------2-------------3------------
I'll take your burden, you take My grace, rest easy, in My embrace           


-------3------------3------3------------------------3-------------------------
-------3--3---------3--3---3--3---------------------3-------------------------
-------0--2---------0--2---0--2---------------------0-------------------------
-------2--0---------2--0---2--0---------------------0-------------------------
-------3--x---------3--x---3--x---------------------2-------------------------
----------2------------2------2---------------------3-------------------------
rest easy,   rest easy,  easy,  in My embrace

Comments about this tab

No comments/corrections found. Add your own

Complimentary Christian Ringtones
Dadamobile and CGR have teamed up to bring your favorite Christian artists right to your phone. Sign up today and get 10 complementary ringtones!
Tab Country
Did you know CGR has a sister site w/ country guitar tabs? Well we do! Its called Tab Country. It has a great archive with a lot of country tabs.
Rockin Tabs
Are you looking for a site that has rock guitar tabs? Then Rockintabs.com is the place for you. It is a budding site with many rock guitar tabs. Submit your tab today.
Tab Gallery
Tab Gallery has a compilation of christian, rock, and country tabs all in one place. Come visit us.