Guitar Tabs
song title    band name

Join Us Today!

Don't strum alone...
be a part of the largest online Christian music community. Browse thousands of guitar tabs and chat w/ musicians like yourself.


It's Free!

This tab has been rated a 4.00 out of 5 for accuracy. (2 votes)Sorry, but you must be logged in to rate this tab.
Click here to log-in, or you can click here to register.
(Registration is free)

All songs owned by corresponding publishing company. If you make copies of any song on this website, be sure to report your usage to CCLI.
Submitted by: jesusfreak 199

This is a really cool song. and yea its just cool
Star by Switchfoot.





intro: guitar 1
e------------------------------------------------------------------------>
B------------------------------------------------------------------------>
G------------------------------------------------------------------------>
D-0-12-0-11-12-00-15-000-13-00-16-20-18-0-12-0-11-12-00-15-000-130131313->
A-0-12-0-11-12-00-15-000-13-00-16-20-18-0-12-0-11-12-00-15-000-130131313->
D-0-12-0-11-12-00-15-000-13-00-16-20-18-0-12-0-11-12-00-15-000-130131313->
(play a total of 4x)

intro: guitar 2
e------------------------------------------------------------------->
B------------------------------------------------------------------->
G------------------------------------------------------------------->
D--------4---------------4---------------4---------------4---------->
A----45------8--45---45------8-888---45------8--45---45------8-888-->
D-020--05-045-02--020--05-045-----020--05-045-02--020--05-045------->

verse 1: guitar 2
e------------------------------------------------------------------------->
B--------------------------3-3-33-3-3------------------------------------->
G--------------------------2-2-22-2-2-5-5-55-5-5----------2-2-22-2-2-222-->
D-0-000-0-00-0-00-7-7-77-7-0-0-00-0-0-5-5-55-5-5-7-7-77-7-2-2-22-2-2-222-->
A-0-000-0-00-0-00-5-5-55-5-0-0-00-0-0-3-3-33-3-3-5-5-55-5-0-0-00-0-0-000-->
D-0-000-0-00-0-00-5-5-55-5-0-0-00-0-0------------5-5-55-5----------------->

verse 1: guitar 1 (guitar 2 repeat verse 1 riff)
e------------------------------------------------------------------------->
B---------------------0004--------00002222222222-------------------------->
G-33333333333333333333----33333333---------------11111111----------------->
D---------------------------------------------------------33333333333333-->
A------------------------------------------------------------------------->
D------------------------------------------------------------------------->


verse 1: guitar 2
e----------------------------->
B----------------------------->
G--------2~~----4~~----5~~---->
D-3~~----2~~----4~~----5~~---->
A-3~~----0~~----2~~----3~~---->
D-3~~------------------------->
chorus: guitar 2
/e-------------------------------------------------------------------------->|\
|B-------------------------------------------------------------------------->|
|G----------------------333333----------------------------------------2~~--->|
|D-000000000-3333333333-333333-333333--------4-------333333333-111111-2~~--->|
|A-000000000-3333333333-111111-333333----45------5555333333333-111111-0~~--->|
|D-000000000-3333333333--------333333-020--05-045----333333333-111111------->|
|                                                                          |
|chorus: guitar1                                                          |
|e-------------------------------------------------------------------------->|
|B-------------------------------------------------------------------------->|
|G-------------------------------------------------------------------------->|
|D-444220----444220-----4--2-0-----------------------444220----4--2-0------->|
|A-------111-------111-------------------------------------111-------------->|
\D-----------------------------333333---------------------------------3----->|~->/


chorus: guitar 2
e---------------------------------->
B---------------------------------->
G---------------------------------->
D--------4---------------4--------->
A----45------7--45---45------8-888->
D-020--05-045-02--020--05-045------>

verse 2: guitar 1 (guitar 1 repeat verse 1 riff twice) (repeat this measure)
e------------------------------------------------------------------------->
B---------------------0002--------00002222222222-------------------------->
G-33333333333333333333----33333333---------------11111111----------------->
D---------------------------------------------------------3333333333333--->
A------------------------------------------------------------------------->
D------------------------------------------------------------------------->
verse 2: guitar 2
e----------------------------->
B----------------------------->
G--------2~~----4~~----5~~---->
D-3~~----2~~----4~~----5~~---->
A-3~~----0~~----2~~----3~~---->
D-3~~------------------------->
chorus 2: guitar 1
/e-------------------------------------------------------------------------->|\
|B-------------------------------------------------------------------------->|
|G----------------------333333----------------------------------------2~~--->|
|D-000000000-3333333333-333333-333333--------4-------333333333-111111-2~~--->|
|A-000000000-3333333333-111111-333333----45------8888333333333-111111-0~~--->|
|D-000000000-3333333333--------333333-020--05-045----333333333-111111------->|
|                                                                          |
|chorus 2: guitar1                                                        |
|e-------------------------------------------------------------------------->|
|B-------------------------------------------------------------------------->|
|G-------------------------------------------------------------------------->|
|D-444220----444220-000-4--2-0-----------------------444220----4--2-0------->|
|A-------000-----------------------------------------------000-------------->|
\D-----------------------------555555---------------------------------5----->|~->/


bridge: guitar 2
e-------------------------------------------------------------------------->
B-------------------------------------------------------------------------->
G-------------------------------------------------------------------------->
D--------4---------------4---------3333-22-555--------4--------3333-22-555->
A----45------8--45---45------8-888-3333-22-555----45------8888-3333-22-555->
D-020--05-045-02--020--05-045------3333-22-555-020--05-045-----3333-22-555->


bridge: guitar2
/e--------------------------------------------------------->|\
|B--------------------------------------------------------->|
|G--------2~~-------------------------2~~----4~~----5~~---->|
|D-3~~----2~~----2~~----3~~----3~~----2~~----4~~----5~~---->|
|A-3~~----0~~----2~~----3~~----3~~----0~~----2~~----3~~---->|
|D-3~~-----------2~~----3~~----3~~------------------------->|
|                                                         |
|bridge: guitar 1                                         |
|e----0~~----9~~-----2-------0~~--0~~---0~~------2--3~~---->|
|B----------------------0~~-------------------------------->|
|G--------------------------------------------------------->|
|D--------------------------------------------------------->|
|A--------------------------------------------------------->|
\D--------------------------------------------------------->|/
chorus 3: guitar 2
e------------------------------------------------------>
B------------------------------------------------------>
G-55555555-77777777-----------------77777777-4~~---2~~->
D-55555555-55555555--------4--------55555555-2~~---2~~->
A-33333333-55555555----45------8888-55555555-2~~---0~~->
D-------------------020--05-045------------------------>
outro: guitar 2
/e-------------------------------------------------------------------------->|\
|B-------------------------------------------------------------------------->|
|G-------------------------------------------------------------------------->|
|D--------4---------------4---------------4---------------4-----------0~~--->|
|A----45------8--45---45------8-888---45------8--45---45------8--4-5--0~~--->|
|D-020--05-045-02--020--05-045-----020--05-045-02--020--05-045-02-----0~~--->|
|                                                                          |
|outro: guitar 1                                                           |
|e-----------------------------------------000----555-333---5-3333-2~-2~~--->|
|B--------------------------------------------333---------3----------------->|
|G---------------------------------444-222---------------------------------->|
|D-------------------------------------------------------------------------->|
|A-------------------------------------------------------------------------->|
\D-------------------------------------------------------------------------->|/


Comments about this tab

HolyRockJfreak - 2006-04-23

That's alot harder way to play it....it's right but it's harder to play the top string right on the 20th fret....


graysondh - 2006-04-29

The intro is played with a combination of power chords and octaves. the rest of the tab seems to be in key, but as the guy above me said, its a harder way to play it.


jkim519 - 2006-05-15

i think it's 0 then 2 then 0 not the 20th fret
u should really either bracket that or put parenthesis around if it's gona be a two digit numbered fret


Add a comment/correction

Complimentary Christian Ringtones
Dadamobile and CGR have teamed up to bring your favorite Christian artists right to your phone. Sign up today and get 10 complementary ringtones!
Tab Country
Did you know CGR has a sister site w/ country guitar tabs? Well we do! Its called Tab Country. It has a great archive with a lot of country tabs.
Rockin Tabs
Are you looking for a site that has rock guitar tabs? Then Rockintabs.com is the place for you. It is a budding site with many rock guitar tabs. Submit your tab today.
Tab Gallery
Tab Gallery has a compilation of christian, rock, and country tabs all in one place. Come visit us.