Guitar Tabs
song title    band name

Join Us Today!

Don't strum alone...
be a part of the largest online Christian music community. Browse thousands of guitar tabs and chat w/ musicians like yourself.


It's Free!

This tab has been rated a 5.00 out of 5 for accuracy. (1 vote)Sorry, but you must be logged in to rate this tab.
Click here to log-in, or you can click here to register.
(Registration is free)

All songs owned by corresponding publishing company. If you make copies of any song on this website, be sure to report your usage to CCLI.
Submitted by: Adam K

P.O.D.-Roots In Stereo
From:Testify
Copyright  2006 Word Records
Drop C Tuning C-G-C-F-A-D

palm mute=...etc.
h=hammer on
sd=slide down
s=slide
v=vibrato

Intro
C[-5/5--------0/0--------]
G[-5/5--------0/0--------]
C[-5/5--------0/0--------]

Verse 1
C[-5/5-3/5/3/5-3/5----3/5/3/5-3/5--0/0-------------------------------]
G[-5/5-----------------------------0/0-3/5/3/5-3/5----3/5/3/5-3/5----]
C[-5/5-----------------------------0/0-------------------------------]
       ....... ...    ....... ...      ....... ...    ....... ...

C[-5/5-3/5/3/5-3/5--3/5/5/3-5-5--3/5/3/5-3/5--3/5/3/0----]
G[-5/5---------------------------------------------------]
C[-5/5---------------------------------------------------]
       ....... ...  ....... . .  ....... ...  ....... 

C[-0/0---------------------------------------------------]
G[-0/0-3/5/3/5-3/5--3/5/5/3-5-5--3/5/3/5-3/5--3/5/3/0----]
C[-0/0---------------------------------------------------]
       ....... ...  ....... . .  ....... ...  .......

C[-5/5-3/5/3/5-3/5--3/5/5/3-5-5--3/5/3/5-3/5--3/5/3/0----]
G[-5/5---------------------------------------------------]
C[-5/5---------------------------------------------------]
       ....... ...  ....... . .  ....... ...  ....... 

C[-0/0---------------------------------------------------]
G[-0/0-3/5/3/5-3/5--3/5/5/3-5-5--3/5/3/5-3/5--3/5/3/0----]
C[-0/0---------------------------------------------------]
       ....... ...  ....... . .  ....... ...  .......
Then
C[--0--]
G[--0--]stop
C[--0--]

Chorus
F[----------5----------------------]
C[-7/3/0--7/5----7/3/0--7/3-5/0----]
G[-7/3/0--7/3----7/3/0--7/3-5/0----]x4
C[-7/3/0--7/3----7/3/0--7/3-5/0----]

Verse 2
C[-5/5-3/5/3/5-3/5--3/5/5/3-5-5--3/5/3/5-3/5--3/5/3/0----]
G[-5/5---------------------------------------------------]
C[-5/5---------------------------------------------------]
       ....... ...  ....... . .  ....... ...  ....... 

C[-0/0---------------------------------------------------]
G[-0/0-3/5/3/5-3/5--3/5/5/3-5-5--3/5/3/5-3/5--3/5/3/0----]
C[-0/0---------------------------------------------------]
       ....... ...  ....... . .  ....... ...  .......

C[-5/5--------0/0----------]
G[-5/5--------0/0-3/5/5----]
C[-5/5--------0/0----------]
                  .....
C[--0--]
G[--0--]stop
C[--0--]

Then
C[-5/5-3/5/3/5-3/5--3/5/5/3-5-5--3/5/3/5-3/5--3/5/3/0----]
G[-5/5---------------------------------------------------]
C[-5/5---------------------------------------------------]
       ....... ...  ....... . .  ....... ...  ....... 

C[-0/0---------------------------------------------------]
G[-0/0-3/5/3/5-3/5--3/5/5/3-5-5--3/5/3/5-3/5--3/5/3/0----]
C[-0/0---------------------------------------------------]
       ....... ...  ....... . .  ....... ...  .......

C[--0--]
G[--0--]stop
C[--0--]

Chorus

Bridge
Gtr. 2
F[-9h10/9/9xx9h10/9/9xx9h10/9/9---------------]
C[-----------------------------10/10-7/7/7----]
Gtr. 1
(low C string)
C[---------------------------------0/3/5-5h7--]
Then
Gtr. 1
F[-12sd---12sd---12sd-----------------]
C[--xsd----xsd----xsd-----------------]
G[-10sd---10sd---10sd-----------------]x2
C[------0------0------0--0/3/5-5h7----]

F[-9s10/9/9-----9s10/9/9-----9s10/9/9-9/12/12/12----]
C[-xs-x/x/x-----xs-x/x/x-----xs-x/x/x-x/-x/-x/-x----]
G[-7s-8/7/7-----7s-8/7/7-----7s-8/7/7-7/10/10/10----]x5
C[----------0/0----------0/0------------------------]
Gtr. 2
D[-----------------------------22v----17v----17vsu----]
A[---------------13v----15v---------------------------]
F[-12v----14v-----------------------------------------]
Then Stop

Chorus 2
F[----------5----------------------]
C[-7/3/0--7/5----7/3/0--7/3-5/0----]
G[-7/3/0--7/3----7/3/0--7/3-5/0----]x11
C[-7/3/0--7/3----7/3/0--7/3-5/0----]

Ending
Gtr. 2
F[--2--]
Gtr. 1
A[-----------10----10sd--6----6sd--8----8sd----]
F[-7----7sd------------------------------------]x3
End on
F[--7----7sd--]


Tabbed by Adam K

Comments about this tab

Adam K - 2006-06-06

correction =Copyright 2006 Atlantic* Records
(Word Label)


petethepirate - 2006-06-07

great tab man! it's like you're partr of the band or something! keep rocking out!
jah love, from your new buddy
Cameron


Adam K - 2006-06-22

Thanx, man. Jah love


Add a comment/correction

Complimentary Christian Ringtones
Dadamobile and CGR have teamed up to bring your favorite Christian artists right to your phone. Sign up today and get 10 complementary ringtones!
Tab Country
Did you know CGR has a sister site w/ country guitar tabs? Well we do! Its called Tab Country. It has a great archive with a lot of country tabs.
Rockin Tabs
Are you looking for a site that has rock guitar tabs? Then Rockintabs.com is the place for you. It is a budding site with many rock guitar tabs. Submit your tab today.
Tab Gallery
Tab Gallery has a compilation of christian, rock, and country tabs all in one place. Come visit us.