Guitar Tabs
song title    band name

Join Us Today!

Don't strum alone...
be a part of the largest online Christian music community. Browse thousands of guitar tabs and chat w/ musicians like yourself.


It's Free!

This tab has been rated a 5.00 out of 5 for accuracy. (2 votes)Sorry, but you must be logged in to rate this tab.
Click here to log-in, or you can click here to register.
(Registration is free)

All songs owned by corresponding publishing company. If you make copies of any song on this website, be sure to report your usage to CCLI.
Submitted by: Adam K

Emery-In A Win, Win Situation
From:The Question
Copyright  2005 Tooth and Nail Records
Drop C# Tuning C#-G#-C#-F#-A#-D#

su=slide up
h=hammer on
s=slide 
b=bend

Intro
F#[----5---5-------5---5-------5---5-------5---4---5------]
C#[--2---2---2---3---3---3---0---0---0---0---0---0---0----]
G#[-0-0---0-----0-0---0-----------------------------------]
C#[-------------------------0-0---0-----0-0---0---0-------]

Verse 1
F#[----5---5-------5---5-------5---5-------5---4---5------]
C#[--2---2---2---3---3---3---0---0---0---0---0---0---0----]
G#[-0-0---0-----0-0---0-----------------------------------]x3
C#[-------------------------0-0---0-----0-0---0---0-------]

Chorus
Gtr. 2
They use some sort of pedal to make it sound choppy
C#[-3----5----7--------3----5----]
G#[-3----5----7--------3----5----]
C#[-3----5----7--------3----5----]
Gtr. 1
D#[su12--12---12--12-------------su12--12---12--12---------------------------]
A#[---10--10---10--10-8h10/8h10-----10--10---10--12-10/12/10s8s5--8-----0--0-]
F#[--------------------------------------------------------------------5--5--]

D#[su12--12---12--12-------------su12--12---12--12---------------------]
A#[---10--10---10--10-8h10/8h10-----10--10---10--12-10/12/10s8s5--8----]
F#[--------------------------------------------------------------------]

Verse 2
(Same as Verse 1)

Chorus 2
Gtr. 2
Same pedal
C#[-3----5----7--------3----5----7--------3----5----7--------3----5----]
G#[-3----5----7--------3----5----7--------3----5----7--------3----5----]
C#[-3----5----7--------3----5----7--------3----5----7--------3----5----]
Gtr. 1
D#[su12--12---12--12-------------su12--12---12--12---------------------------]
A#[---10--10---10--10-8h10/8h10-----10--10---10--12-10/12/10s8s5--8-----0--0-]
F#[--------------------------------------------------------------------5--5--]
(x3)

D#[----0--------3--------0-------3------------]
A#[-1s3--1-1s3/5-5/3--1s3-1-1s3/5-5/3/1/3b----]
F#[-------------------------------------------]

Bridge
F#[-4----4---------4----]
C#[-5----2----9----0----]
G#[-3----2----7----0----]x4
C#[------2----7----0----]

End on
F#[-4----]
C#[-5----]
G#[-3----]


Tabbed by Adam K

Comments about this tab

prosk8er2890 - 2006-11-05

heyy adam
you are freeakin awesome
great job with all of these emery tabs =D
i was wondering though..would you happen to have any sheet music for this song for the piano?
i would love to learn this song on the piano
thx and keep up the good work =]


Add a comment/correction

Complimentary Christian Ringtones
Dadamobile and CGR have teamed up to bring your favorite Christian artists right to your phone. Sign up today and get 10 complementary ringtones!
Tab Country
Did you know CGR has a sister site w/ country guitar tabs? Well we do! Its called Tab Country. It has a great archive with a lot of country tabs.
Rockin Tabs
Are you looking for a site that has rock guitar tabs? Then Rockintabs.com is the place for you. It is a budding site with many rock guitar tabs. Submit your tab today.
Tab Gallery
Tab Gallery has a compilation of christian, rock, and country tabs all in one place. Come visit us.