Guitar Tabs
song title    band name

Join Us Today!

Don't strum alone...
be a part of the largest online Christian music community. Browse thousands of guitar tabs and chat w/ musicians like yourself.


It's Free!

This tab has been rated a 4.33 out of 5 for accuracy. (3 votes)Sorry, but you must be logged in to rate this tab.
Click here to log-in, or you can click here to register.
(Registration is free)

All songs owned by corresponding publishing company. If you make copies of any song on this website, be sure to report your usage to CCLI.
Submitted by: jesusfreak 199

This is my first tab so there might be some mistakes.!!!!!


E]-----------------------------------------|
B]-----------------------------------------|
G]-----------------------------------------|
D]-----------------------------------------|
A]-----------------------------------------|
D]3-5-0-3-5-0-8-10-0-8-10-0-(p)XX2-(p)-XX4-|

E]-----------------------------------------|
B]-----------------------------------------|
G]-----------------------------------------|
D]-77xx33xx55xx00xx77xx33xx55xx00---------|
A]-77xx33xx55xx00xx77xx33xx55xx00---------|
D]-77xx33xx55xx00xx77xx33xx55xx00---------|

E]-----------------------------------------------------------------|
B]-----------------------------------------------------------------|
G]-----------------------------------------------------------------|
D]-00-8888-333-10-0-3-00-8888-333-5--------------------------------|
A]-00-8888-333-10-0-3-00-8888-333-5--------------------------------|
D]-00-8888-333-10-0-3-00-8888-333-5-9-7-3-5-7-x2-------------------|

E]-----------------------------------------|
B]-----------------------------------------|
G]-----------------------------------------|
D]-----------------------------------------|
A]-----------------------------------------|
D]3-5-0-3-5-0-8-10-0-8-10-0-(p)XX2-(p)-XX4-|

E]-----------------------------------------|
B]-----------------------------------------|
G]-----------------------------------------|
D]-77xx33xx55xx00xx77xx33xx55xx00---------|
A]-77xx33xx55xx00xx77xx33xx55xx00---------|
D]-77xx33xx55xx00xx77xx33xx55xx00---------|


E]-----------------------------------------------------------------|
B]-----------------------------------------------------------------|
G]-----------------------------------------------------------------|
D]-00-8888-333-10-0-3-00-8888-333-5--------------------------------|
A]-00-8888-333-10-0-3-00-8888-333-5--------------------------------|
D]-00-8888-333-10-0-3-00-8888-333-5-9-7-3-5-7-x2-------------------|




E]-----------------------------------------|
B]-----------------------------------------|
G]-----------------------------------------|
D]-0-8-0-8-0-10-0-10-0-13-12-X2------------|
A]-0-8-0-8-0-10-0-10-0-13-12-X2------------|
D]-0-8-0-8-0-10-0-10-0-13-12-X2------------|

enjoy the song its really good.
can someone tab the solo?

Comments about this tab

Dani_Boy - 2006-04-01

Yes there are some mistakes, but it's not bad at all for a first
tab! I think it's really good of you to step up and start tabbing
like this, and it's a really good start. So I'll rate it a 4.

There's one thing I want to add though, where yours is quite off.
It's the fast single note line in the choruses:

D|-------------|
A|-------------|
D|--108087057--|

That's the thing with the right tempo, I'll write it again in a
different way so that you see the single notes easier.


D|------------------------|
A|------------------------|
D|--10-8-0---8-7-0---5-7--|

Yeah, nice job jesusfreak 199! Keep learning "The Art of Tabbing" lol


camedman47 - 2006-04-13

this tab rocks, but someone should tab the solo. i play this song to my headphones and i wish i could play the solo along with it, i would pretty much love whoever tabs the solo. t'anks.


|)rink)v(tn|)ew - 2006-07-02

the hard part of trying to tab the solo is that theres so much wah in it that it makes it hard to hear!


Add a comment/correction

Complimentary Christian Ringtones
Dadamobile and CGR have teamed up to bring your favorite Christian artists right to your phone. Sign up today and get 10 complementary ringtones!
Tab Country
Did you know CGR has a sister site w/ country guitar tabs? Well we do! Its called Tab Country. It has a great archive with a lot of country tabs.
Rockin Tabs
Are you looking for a site that has rock guitar tabs? Then Rockintabs.com is the place for you. It is a budding site with many rock guitar tabs. Submit your tab today.
Tab Gallery
Tab Gallery has a compilation of christian, rock, and country tabs all in one place. Come visit us.