Guitar Tabs
song title    band name

Join Us Today!

Don't strum alone...
be a part of the largest online Christian music community. Browse thousands of guitar tabs and chat w/ musicians like yourself.


It's Free!

This tab has been rated a 4.60 out of 5 for accuracy. (20 votes)Sorry, but you must be logged in to rate this tab.
Click here to log-in, or you can click here to register.
(Registration is free)

All songs owned by corresponding publishing company. If you make copies of any song on this website, be sure to report your usage to CCLI.
Submitted by: Adam K

Kutless-Million Dollar Man
From:Hearts Of The Innocent
Copyright  2006 BEC Recordings
Drop D Tuning D-A-D-G-B-E

palm mute=...etc.
h=hammer on
p=pull off
sd=slide down
s=slide

Intro
B[---------6-------5h6p5----------6-------5h6p5-----]
G[---------9------------7---------9------------7----]
D[-0/0/0/0---0-0-0--------0/0/0/0---0-0-0-----------]
A[-0/0/0/0---0-0-0--------0/0/0/0---0-0-0-----------]x2
D[-0/0/0/0---0-0-0--------0/0/0/0---0-0-0-----------]
   .......   . . .        .......   . . . 
B[-----------------------------]
G[----------9-------7h9p7------]
D[-8/8/8/8-10-8-8-8------10----]
A[-8/8/8/8----8-8-8------------]x2
D[-8/8/8/8----8-8-8------------]
   .......    . . .
B[---------6-------5h6p5----------6-------5h6p5-----]
G[---------9------------7---------9------------7----]
D[-0/0/0/0---0-0-0--------0/0/0/0---0-0-0-----------]
A[-0/0/0/0---0-0-0--------0/0/0/0---0-0-0-----------]x2
D[-0/0/0/0---0-0-0--------0/0/0/0---0-0-0-----------]
   .......   . . .        .......   . . . 
B[-------------------------------------------------------]
G[----------9-------7h9p7----------------9---------------]
D[-8/8/8/8-10-8-8-8------10-10/10/10/10-10-10-10-10xxsd--]
A[-8/8/8/8----8-8-8---------10/10/10/10----10-10-10xxsd--]
D[-8/8/8/8----8-8-8---------10/10/10/10----10-10-10xxsd--]
   .......    . . .         ...........    .. .. .. 
Then
Gtr. 2
D[-0----3----10----5-5h6p5----]
A[-0----3----10----5----------]x2
D[-0----3----10----5----------]

Gtr. 1
B[-6----5----10----3----6----5---------3----]
G[-7----5----10----2----7----5----5----2----]
D[--------------------------------5---------]
A[--------------------------------3---------]
Then
B[-------6-------6-------6-------5----]
G[-------9-------9-------7-5-5-5-5----]
D[-0-0-0---0-0-0---8-8-8---5-5-5------]
A[-0-0-0---0-0-0---8-8-8---3-3-3------]
D[-0-0-0---0-0-0---8-8-8--------------]
   . . .   . . .   . . .   . . . 
Verse 1
B[-------6-------6-------6-------5----]
G[-------9-------9-------7-5-5-5-5----]
D[-0-0-0---0-0-0---8-8-8---5-5-5------]
A[-0-0-0---0-0-0---8-8-8---3-3-3------]x2
D[-0-0-0---0-0-0---8-8-8--------------]
   . . .   . . .   . . .   . . .  
B[-------6-------6-------6-------3h5p3-----]
G[-------9-------9-------7-5-5-5------5----]
D[-0-0-0---0-0-0---8-8-8---5-5-5-----------]
A[-0-0-0---0-0-0---8-8-8---3-3-3-----------]
D[-0-0-0---0-0-0---8-8-8-------------------]
   . . .   . . .   . . .   . . . 
Then
G[-10----------]
D[-10----10----]
A[--8----10----]
D[--8----10----]

Chorus
Gtr. 2
D[-0----3----10----5-5h6p5----]
A[-0----3----10----5----------]x3
D[-0----3----10----5----------]

Gtr. 1
B[-6----5----10----3----6----5---------3----6----5----10----3----]
G[-7----5----10----2----7----5----5----2----7----5----10----2----]
D[--------------------------------5------------------------------]
A[--------------------------------3------------------------------]
Then
Gtr. 2
D[-3----10----]
A[-3----10----]
D[-3----10----]

Gtr. 1
G[-10---9s10/9--]
D[--x---xs-x/x--]
A[--8---7s-8/7--]

Post-Chorus
B[-------6-------6-------6-------5----]
G[-------9-------9-------7-5-5-5-5----]
D[-0-0-0---0-0-0---8-8-8---5-5-5------]
A[-0-0-0---0-0-0---8-8-8---3-3-3------]
D[-0-0-0---0-0-0---8-8-8--------------]
   . . .   . . .   . . .   . . .

Verse 2
(Same as Verse 1)

Chorus

Bridge
Gtr. 2
G[-10----------]
D[-10----10----]
A[--8----10----]
D[--8----10----]

Gtr. 1
G[--10--7--9--10----]
D[---x--x--x---x----]
A[---8--5--7---8----]
Then
G[-------7sd-------10sd----]
D[-0/0-0-xsd-0-0-0--xsd----]
A[-0/0-0-5sd-0-0-0--8sd----]
D[-0/0-0-----0-0-0---------]
   ... .     . . .
Then
Gtr. 2
G[-10----------]
D[-10----10----]
A[--8----10----]
D[--8----10----]

Gtr. 1
G[--10--7--9--10----]
D[---x--x--x---x----]
A[---8--5--7---8----]
Then
G[-------7sd-------10sd----]
D[-0/0-0-xsd-0-0-0--xsd----]
A[-0/0-0-5sd-0-0-0--8sd----]
D[-0/0-0-----0-0-0---------]
   ... .     . . .
Then
Gtr. 2
G[-10----------]
D[-10----10----]
A[--8----10----]
D[--8----10----]

Gtr. 1
G[--10--7--9--10----]
D[---x--x--x---x----]
A[---8--5--7---8----]
Then
G[-------7sd--------]
D[-0/0-0-xsd-(0)----]
A[-0/0-0-5sd-(0)----]
D[-0/0-0-----(0)----]
   ... .     

Chorus

Ending
Gtr. 2
G[-10----------]
D[-10----10----]
A[--8----10----]
D[--8----10----]

Gtr. 1
G[--10--7--9--10----]
D[---x--x--x---x----]
A[---8--5--7---8----]
Then
G[-------7sd--------]
D[-0/0-0-xsd-(0)----]
A[-0/0-0-5sd-(0)----]
D[-0/0-0-----(0)----]
   ... .     



Tabbed by Adam K

Comments about this tab

AllForHim2008 - 2006-05-12

absolutely genius. i usually play kutless in drop C# but its not that hard to translate it. the accuracy on this tab is amazing. Ive said it once on one of the other tabs but ill say it again. Adam K is probably the best tabber. i use several of your tabs and theyre perfect. God Bless


bigntalboy13 - 2006-05-23

actualy i think that in the begining, after the muted notes, there are four notes, not three


bigntalboy13 - 2006-05-23

o woops nvm, i see the fourth note


E-rock - 2006-06-05

hey adam k! you rule! this tab is the best! and i think its the only...cuz its really hard to tab!


spy_hunter - 2006-06-20

Awesome tab...I personally don't like Kutless but my sister made me tab out this song and yours is way better than mine...lol Good job...


U B the band - 2006-07-08

That's pretty cool...Adam K's Million Dollar Man tab is almost like mine at Ultimate Guitar.com...I guess I know I did it right. Hey spy_hunter where is your M.D.M tab at ? I want to see how you did-PMT


^dying2live^ - 2006-09-03

Great Job!!!!!!


Rio Abad - 2006-11-29

Yeah, Great Job!


Add a comment/correction

Complimentary Christian Ringtones
Dadamobile and CGR have teamed up to bring your favorite Christian artists right to your phone. Sign up today and get 10 complementary ringtones!
Tab Country
Did you know CGR has a sister site w/ country guitar tabs? Well we do! Its called Tab Country. It has a great archive with a lot of country tabs.
Rockin Tabs
Are you looking for a site that has rock guitar tabs? Then Rockintabs.com is the place for you. It is a budding site with many rock guitar tabs. Submit your tab today.
Tab Gallery
Tab Gallery has a compilation of christian, rock, and country tabs all in one place. Come visit us.