Guitar Tabs
song title    band name

Join Us Today!

Don't strum alone...
be a part of the largest online Christian music community. Browse thousands of guitar tabs and chat w/ musicians like yourself.


It's Free!

This tab has been rated a 5.00 out of 5 for accuracy. (7 votes)Sorry, but you must be logged in to rate this tab.
Click here to log-in, or you can click here to register.
(Registration is free)

All songs owned by corresponding publishing company. If you make copies of any song on this website, be sure to report your usage to CCLI.
Submitted by: Adam K

Kutless-Somewhere In The Sky
From:Hearts Of The Innocent
Copyright  2006 BEC Recordings
Drop C# Tuning C#-G#-C#-F#-A#-D#

s=slide
h=hammer on

Intro
F#[-9--12-------------------------]
C#[-7--10--0/0-0/0-0-0/0-0/0-0----]
G#[-7--10--0/0-0/0-0-0/0-0/0-0----]x2
C#[-7--10--0/0-0/0-0-0/0-0/0-0----]

Verse 1
Gtr. 2
D#[-8----10--5----]x3
Gtr. 1
F#[-----5-------5-------5-------7s5/7s5-5/5----]
C#[--3----3--3----3--0----0--0-0---------------]
G#[--------------------------------------------]x3
C#[-3-3-----3-3-----0-0-----0-0----------------]
Then
Gtr. 2
F#[-5---------]
C#[-5----5----]
G#[-3----5----]
C#[------5----]
Gtr. 1
F#[----5------]
C#[--5---5----]
G#[-3-3-------]

Chorus
F#[-9--12-------------------------]
C#[-7--10--0/0-0/0-0-0/0-0/0-0----]
G#[-7--10--0/0-0/0-0-0/0-0/0-0----]x2
C#[-7--10--0/0-0/0-0-0/0-0/0-0----]
Then
C#[-7----3----5----]
G#[-7----3----5----]
C#[-7----3----5----]
Then
F#[-9--12-------------------------]
C#[-7--10--0/0-0/0-0-0/0-0/0-0----]
G#[-7--10--0/0-0/0-0-0/0-0/0-0----]
C#[-7--10--0/0-0/0-0-0/0-0/0-0----]

Verse 2
(Same as Verse 1)

Chorus

Bridge
C#[-x2x2h3xx2x2h3x3-0-8/7/0/5/0/5h7-0-8/7/0/5/0/5h7--]
G#[-x2x2h3xx2x2h3x3-0-8/7/0/5/0/5h7-0-8/7/0/5/0/5h7--]x4
C#[-x2x2h3xx2x2h3x3-0-8/7/0/5/0/5h7-0-8/7/0/5/0/5h7--]
Then
C#[-0-8/7/0/5/0/5h7-0-8/7/0/5/0/5h7--]
G#[-0-8/7/0/5/0/5h7-0-8/7/0/5/0/5h7--]
C#[-0-8/7/0/5/0/5h7-0-8/7/0/5/0/5h7--]

Chorus 2
C#[-7----3----5----]
G#[-7----3----5----]
C#[-7----3----5----]
Then
F#[-9--12-------------------------]
C#[-7--10--0/0-0/0-0-0/0-0/0-0----]
G#[-7--10--0/0-0/0-0-0/0-0/0-0----]
C#[-7--10--0/0-0/0-0-0/0-0/0-0----]
Then
C#[-7----3----5----]
G#[-7----3----5----]
C#[-7----3----5----]
Then
F#[-9--12-------------------------]
C#[-7--10--0/0-0/0-0-0/0-0/0-0----]
G#[-7--10--0/0-0/0-0-0/0-0/0-0----]x2
C#[-7--10--0/0-0/0-0-0/0-0/0-0----]


Tabbed by Adam K

Comments about this tab

Falcon-fever777 - 2006-04-17

it sounded awesome!


Kutlessfan501 - 2006-04-21

Another job well done....


4Glory - 2006-05-27

Nice tab, I did submit this tab in standard tuning but I won't post. Any Idea's on whats going on?
Thanks agina!
-Toran


CrossbearerJDC9 - 2006-09-25

Perfect.
-CrossbearerJDC - Pick Up Your Cross


franman781 - 2007-01-24

oooo, so close on the rhythem...

sry but i must intervene:

00/00/0/00/0000


danderzies86 - 2007-05-27

one small error

in the Chorus 2
C#[-7----3----5----]
G#[-7----3----5----]
C#[-7----3----5----]

right after the bridge it should be

C#[-7----3----5----xx]
G#[-7----3----5----xx]
C#[-7----3----5----xx] I think I'm not sure if it's a palm muted fret or scratching or what fret it would be if it is palm muted


theaj - 2008-03-21

This is totaly wrong!!!


theaj - 2008-03-21

It's in drop Db


christrocker486 - 2008-04-09

lol well I can c that theaj does'nt know much about a guitar at all cuz if he did he would know that Drop Db and Drop C# r the same tuning lol.


Pillar268 - 2008-04-23

i have to agree with theaj. the chords are perfect but its in Drop D. i looked in the official tab book.


Ziti4Him - 2010-06-13

Nope, Drop Db or C#, sorry, I've practiced it, and to play it w/ the recording Kutless uses that tuning. But Drop D would be a different pitch of the song, so yeah.


Add a comment/correction

Complimentary Christian Ringtones
Dadamobile and CGR have teamed up to bring your favorite Christian artists right to your phone. Sign up today and get 10 complementary ringtones!
Tab Country
Did you know CGR has a sister site w/ country guitar tabs? Well we do! Its called Tab Country. It has a great archive with a lot of country tabs.
Rockin Tabs
Are you looking for a site that has rock guitar tabs? Then Rockintabs.com is the place for you. It is a budding site with many rock guitar tabs. Submit your tab today.
Tab Gallery
Tab Gallery has a compilation of christian, rock, and country tabs all in one place. Come visit us.