Guitar Tabs
song title    band name

Join Us Today!

Don't strum alone...
be a part of the largest online Christian music community. Browse thousands of guitar tabs and chat w/ musicians like yourself.


It's Free!

This tab has been rated a 5.00 out of 5 for accuracy. (5 votes)Sorry, but you must be logged in to rate this tab.
Click here to log-in, or you can click here to register.
(Registration is free)

All songs owned by corresponding publishing company. If you make copies of any song on this website, be sure to report your usage to CCLI.
Submitted by: Andp_p

Words and Music by Scott Ligertwood, Joel Houston, Marty Sampson, 
Michael Guy Chislett, Brooke Fraser 2005

One that is sure to get your church/youth pumped about whats happening

I haven't put much timing in here just the notes, you will have to listen
to the cd for the proper timing of everything

Intro (just electric gat)

e-----------------------------------
B-14--12--11--12--12--11--9---12----
G-11--11--11--11--11--11--10--13----

Then the bass comes in playing a D#m slide to F and a F# over the top

Verse
Guitar 1
D#m | D#m | D#m | D#m | F | F | F | F |
Guitar 2
    |     |     |     |G-6--8--10-11-
                       D-------------  x2
                       A-4--6--8--9--
Bass
G--------------------------------------------
D--------13-13-13-13-------------------------
A-6-6-6-6-----------13-13-13-13-14-14-14-14-- X2
E--------------------------------------------

G-------------------------------------------------------------
D-------------------------------------------------------------
A-9-9---9-9-9---9-9-9---9-9-9---9-9-9---9-9-9---9-9-9---9-9-9-
E-------------------------------------------------------------

Pre Chorus
Everyone PLays
G#m | G#m | B | B |

Chorus

F# | B | G#m | D#m |
F# | B | G#m | G#m |

Then the intro plays again

Then the verse
Pre Chorus 
Chorus x2

Bridge
e-----------------------------------------------------------------------------
B-----------14-14-14----------12-12-12----------11-11-11----------11-11-11----
G------11-11-------------11-11-------------11-11-------------11-11------------
D-13-13-------------13-13-------------13-13-------------13-13-----------------

e-----------------------------------------------------------------------------
B-----------12-12-12----------11-11-11----------9-9-9----------12-12-12-------
G------11-11-------------11-11-------------10-10----------10-10---------------
D-11-11-------------11-11-------------11-11----------12-12--------------------

2nd Part of Bridge
(We want the world to know)
G--------6-6-6-6------6-6-6-6------6-6-6-6--------10-10-10-10--------8-8-8-8--
D-----4-4-------------------------------------------------------11-11---------
A--6-6----x2-------9-9---x2-----9-9---x2-----11-11-----------8-8--------------
E---------------7-7----------6-6----------9-9---------------------------------

Then they play the pre-chorus before going into the chorus x2
Then the Outro is
F# | B | G#m | D#m | x7
Then the last time
F# | B | G#m | B |

So just play power chords mostly and enjoy

Comments about this tab

mmggppmgp - 2006-04-13

Thanks man, im having good luck on getting music for this cd... dude ur so right about getting my church pumped


mmggppmgp - 2006-04-13

i think u had a typo though, the F's r F#'s... but im impressed


Andp_p - 2006-04-15

yeah sorry dude your right
I tend to take quite a long time to write things with the old one finger stab at the keyboard technique.


gitar4GOD06 - 2006-04-21

o man this is perfect...thanks a lot


FirEscape05 - 2006-04-22

Bridge
e-----------------------------------------------------------------------------B-----------14-14-14----------12-12-12----------11-11-11----------(12-(12)-12)
G------11-11-------------11-11-------------11-11-------------11-11------------
D-13-13-------------13-13-------------13-13-------------13-13-----------------

the last part is on the 12th fret you have 11th...just thought u should know


manilacoke3 - 2006-04-24

Comment:
guys, listen carefully & you'll notice that there are D's(octave powerChords) on the intro(rhythms,not the lead) before arriving to D# of the verse.
i think its a flattened 6th note of a major scale.

like this:

G--6--7--(8-->
D-- } (D# is Verse already)
A--4--5--(6-->


Note: i already started at the C# part,ok?

Godbless!


Andp_p - 2006-04-27

heya all
Firescape is right, that is a typo on my part, the 11s are 12s in the instrumental on the last line. Cheers for that dude


guggenheibmer92 - 2006-05-03

hey im pretty sure the chords for the verses arent power chords. can someone figure that out for me?


hyperdork360 - 2006-08-28

Well...for the verse, the bass part you put down, well the frets are kinda far apart, I found 2 ways to play it and they are pretty close to each other

G|---------8-8-8-8----------------------|
D|-----------------8-8-8-8-9-9-9-9------|
A|-6-6-6-6------------------------------|
E|--------------------------------------| x2

G|---------------------------------------------------------------|
D|---------------------------------------------------------------|
A|-9-9--9-9-9--9-9-9--9-9-9--9-9-9--9-9-9--9-9-9--9--9-9-9-9---------------------------------------------|
E|---------------------------------------------------------------|

or

G|----------------------------------------------------------|
D|------------13-13-13-13-----------------------------------|
A|------------------------13-13-13-13 14-14-14-14-----------|
E|-11-11-11-11----------------------------------------------|x2

G|--------------------------------------------------------------|
D|---------------------------------------------------------------|
A|-14-14--14-14-14--14-14-14--14-14-14--14-14-14---14-14-14------|
E|---------------------------------------------------------------|

G|---------------------------------------------------------------|
D|---------------------------------------------------------------|
A|-14-14-14--14--14-14-14-14-------------------------------------|
E|---------------------------------------------------------------|

but, yeah, I found different ways to play the parts..
link to my tab of the same song (for bass):
http://www.christianguitar.org/bsong2277/United-Live-Revolution


Ruined14 - 2006-11-03

Dude, with those minor corrections already pointed out
1 of the best tabs i have ever seen! Man i wasnted to play this song n jsut had no idea where to start with it! n u my friend have donemore than helped!

thx n Gb


Add a comment/correction

Complimentary Christian Ringtones
Dadamobile and CGR have teamed up to bring your favorite Christian artists right to your phone. Sign up today and get 10 complementary ringtones!
Tab Country
Did you know CGR has a sister site w/ country guitar tabs? Well we do! Its called Tab Country. It has a great archive with a lot of country tabs.
Rockin Tabs
Are you looking for a site that has rock guitar tabs? Then Rockintabs.com is the place for you. It is a budding site with many rock guitar tabs. Submit your tab today.
Tab Gallery
Tab Gallery has a compilation of christian, rock, and country tabs all in one place. Come visit us.