Guitar Tabs
song title    band name

Join Us Today!

Don't strum alone...
be a part of the largest online Christian music community. Browse thousands of guitar tabs and chat w/ musicians like yourself.


It's Free!

This tab has been rated a 5.00 out of 5 for accuracy. (2 votes)Sorry, but you must be logged in to rate this tab.
Click here to log-in, or you can click here to register.
(Registration is free)

All songs owned by corresponding publishing company. If you make copies of any song on this website, be sure to report your usage to CCLI.
Submitted by: guitar_freakk09

Superchic[k]
Bowling Ball 

Hey yal, this is my first tab. i hope yal like it, the other tab was like 
icomplete to me so i tabbed it myself. it actually wasnt that hard. well
here it is hope u enjoy



^ = strum up
v = strum down
x = palm mute
s = slide


Intro


Guitar 1


E------------------------------------------------------------
B------------------------------------------------------------
G--------------------------v5-----------^5-------------------
D-^7v7-------^7v3--------^3v5-----------^5v5-----------------
A-^7v7-------^7v3--------^3v3-----------^3v5-----------------
E-^5v5-------^5v1--------^1---------------v3-----------------


Guitar 2


E------------------------------------------------------------
B------------------------------------------------------------
G-----------------------------555555555555-------------------
D-777777777777--333333333333--555555555555--555555555555-----
A-777777777777--333333333333--333333333333--555555555555-----
E-555555555555--111111111111----------------333333333333-----
  xxxxxxxxxxxx  xxxxxxxxxxxx  xxxxxxxxxxxx  xxxxxxxxxxxx


Guitar 1 


E-----------------------------------------------------------
B-----------------------------------------------------------
G---------------------------55555-55555---------------------
D-77777-77777--33333-33333--55555-55555--55555-5------------
A-77777-77777--33333-33333--33333-33333--55555-5-55-55------
E-55555-55555--11111-11111---------------33333-3-33-33------



verse 1


guitar 1


E---------------------------------------------------------------( the 5
B---------------------------------------------------------------      5 thingy
G--------------------------------5----55-----5----5-------------  isnt 100%
D-7----------------------------5-5--5-55-----5-5--5-55----------  correct)
A-7--(let it ring)-------------5----5----------5----55----------
E-5-------------------------------------------------------------


guitar 2


E----------------------------------------------------------------
B----------------------------------------------------------------
G-----------------------------555555555555-----------------------
D-777777777777--333333333333--555555555555--555555555555---------
A-777777777777--333333333333--333333333333--555555555555---------
E-555555555555--111111111111----------------333333333333---------
  xxxxxxxxxxxx  xxxxxxxxxxxx  xxxxxxxxxxxx  xxxxxxxxxxxx

(verse 1 continued)


guitar 1


E------------------------------------------------------------------
B------------------------------------------------------------------
G---5-----55----5-----5--------5----55---5-------------------------
D-5-5---5-55----5-5---5-55---5-5--5-55---5--5----5/4/5-------------
A-5-----5---------5-----55---5----5---------5----------------------
E------------------------------------------------------------------


guitar 2



E----------------------------------------------------------------
B----------------------------------------------------------------
G-----------------------------555555555555-----------------------
D-777777777777--333333333333--555555555555--555555555555---------
A-777777777777--333333333333--333333333333--555555555555---------
E-555555555555--111111111111----------------333333333333---------
  xxxxxxxxxxxx  xxxxxxxxxxxx  xxxxxxxxxxxx  xxxxxxxxxxxx


Pre chorus


E--------------------------
B--------------------------
G--------------------------
D-333-333-2-5555s777-------
A-333-333-2-5555s777-------
E-111-111-0-3333s555-------


chorus 1


E--------------------------------------[-----]---]
B--------------------------------------[-----]---]
G-----------555------------------5555--[-----]---]
D-777--333--555--555--3333-3333--5555--[-555-]-5-]  x2
A-777--333--333--555--3333-3333--3333--[-555-]-5-]
E-555--111-------333--1111-1111--------[-333-]-3-] 


pre verse


Guitar 1


E----------------------------------------------------
B-53--------63-----------53-----------83-------------
G----------------------------------------------------
D----------------------------------------------------
A----------------------------------------------------
E----------------------------------------------------


Guitar 2


E----------------------------------------------------
B-333-55555--333-555-----333-55555--888-333----------
G--------------------55---------------------55-------
D----------------------------------------------------
A----------------------------------------------------
E----------------------------------------------------


verse 2


guitar 1


E---------------------------------------------------------------( the 5
B---------------------------------------------------------------      5 thingy
G--------------------------------5----55-----5----5-------------  isnt 100%
D------------------------------5-5--5-55-----5-5--5-55----------  correct)
A------------------------------5----5----------5----55----------
E--------------------------------------------------------------


guitar 2




E----------------------------------------------------------------
B----------------------------------------------------------------
G-----------------------------555555555555-----------------------
D-777777777777--333333333333--555555555555--555555555555---------
A-777777777777--333333333333--333333333333--555555555555---------
E-555555555555--111111111111----------------333333333333---------
  xxxxxxxxxxxx  xxxxxxxxxxxx  xxxxxxxxxxxx  xxxxxxxxxxxx


(verse 2 continued)


Guitar 1


E------------------------------------------------------------------
B------------------------------------------------------------------
G---5-----55----5-----5--------5----55---5-------------------------
D-5-5---5-55----5-5---5-55---5-5--5-55---5--5----5/4/5-------------
A-5-----5---------5-----55---5----5---------5----------------------
E------------------------------------------------------------------


guitar 2


E----------------------------------------------------------------
B----------------------------------------------------------------
G-----------------------------555555555555-----------------------
D-777777777777--333333333333--555555555555--555555555555---------
A-777777777777--333333333333--333333333333--555555555555---------
E-555555555555--111111111111----------------333333333333---------
  xxxxxxxxxxxx  xxxxxxxxxxxx  xxxxxxxxxxxx  xxxxxxxxxxxx


pre chorus


E--------------------------
B--------------------------
G--------------------------
D-333-333-2-5555s777-------
A-333-333-2-5555s777-------
E-111-111-0-3333s555-------


chorus 2


E--------------------------------------[-----]---]
B--------------------------------------[-----]---]
G-----------555------------------5555--[-----]---]
D-777--333--555--555--3333-3333--5555--[-555-]-5-]  x2
A-777--333--333--555--3333-3333--3333--[-555-]-5-]
E-555--111-------333--1111-1111--------[-333-]-3-] 


Bridge


E--------------------------------------------------
B----------------------6-----6---------------------
G--------55-----------5-------5-5555-54------45----
D-77-33--55--55---777----333----5555----5555-------
A-77-33--33--55---777----333----3333----5555-------
E-55-11------33---555----111------------3333-------



E--------------------------------------------------
B--------------------------------------------------
G-----------------------------5-------5------------
D-222-333--355555555--222-333-555555555------------
A-222-333--355555555--222-333-355555553------------
E-000-111--133333333--000-111--3333333-------------



chorus 3


E--------------------------------------------------------------------
B--------------------------------------------------------------------
G---------55----------------5555-----------------------555555--------
D-77--33--55--55--33333333--5555--555---777777-333333--555555--555555
A-77--33--33--55--33333333--3333--555---777777-333333--333333--555555
E-55--11------33--11111111--------333---555555-111111----------333333


E-----------------------
B-----------------------
G-----------5555--------
D-33333333--5555--555---
A-33333333--3333--555---
E-11111111--------333---



Ending


E---------------------------------------------------------
B-----6----6----------------------------------------------
G----5------5-555-54-----45------------5555---------------
D-777---333---555----555-----3333-3333-5555-5555--777-----
A-777---333---333----555-----3333-3333-3333-5555--777-----
E-555---111----------333-----1111-1111------3333--555-----


Well there u have it. if u have any questions email me at
guitargeek32@yahoo.com

ok well i hope yal enjoy.


guitar_freakk09

Comments about this tab

guitar_freakk09 - 2006-04-15

I made a mistak in the preverse so here's the correction.

pre verse


Guitar 1


E----------------------------------------------------
B-53--------63-----------53-----------83-------------
G----------------------------------------------------
D----------------------------------------------------
A----------------------------------------------------
E----------------------------------------------------


Guitar 2


E----------------------------------------------------
B-555-33333--555-333-----555-33333---555-333----------
G--------------------55----------------------55-------
D----------------------------------------------------
A----------------------------------------------------
E----------------------------------------------------


Dani_Boy - 2006-04-30

Good tab, but it's got pretty many mistakes. Nice first tab!


guitar_freakk09 - 2006-05-04

like what?


guitar_freakk09 - 2006-05-10

hey i just figured out the intro nor the verses are played in palm mute they are just played in heavy distortion.


valkyriemissle - 2006-05-22

hey show me this tab saturday at camp meeting .
-adam (mr. kewl)


guitar_freakk09 - 2006-07-04

correction to bridge

This tab has been rated a 5.00 out of 5 for accuracy.
(2 votes) guitar_freakk09, you have already voted on this tab.

Click here for a plain text version of this song (for better printing)

Add this tab to your list of favorite tabs

This tab was submitted by guitar_freakk09

All songs owned by Integrity and Brentwood-Benson are used by permission.
If you make copies of any song on this website, be sure to report your usage to CCLI.


--------------------------------------------------------------------------------

Superchic[k]
Bowling Ball

Hey yal, this is my first tab. i hope yal like it, the other tab was like
icomplete to me so i tabbed it myself. it actually wasnt that hard. well
here it is hope u enjoy



^ = strum up
v = strum down
x = palm mute
s = slide


Intro


Guitar 1


E------------------------------------------------------------
B------------------------------------------------------------
G--------------------------v5-----------^5-------------------
D-^7v7-------^7v3--------^3v5-----------^5v5-----------------
A-^7v7-------^7v3--------^3v3-----------^3v5-----------------
E-^5v5-------^5v1--------^1---------------v3-----------------


Guitar 2


E------------------------------------------------------------
B------------------------------------------------------------
G-----------------------------555555555555-------------------
D-777777777777--333333333333--555555555555--555555555555-----
A-777777777777--333333333333--333333333333--555555555555-----
E-555555555555--111111111111----------------333333333333-----
xxxxxxxxxxxx xxxxxxxxxxxx xxxxxxxxxxxx xxxxxxxxxxxx


Guitar 1


E-----------------------------------------------------------
B-----------------------------------------------------------
G---------------------------55555-55555---------------------
D-77777-77777--33333-33333--55555-55555--55555-5------------
A-77777-77777--33333-33333--33333-33333--55555-5-55-55------
E-55555-55555--11111-11111---------------33333-3-33-33------



verse 1


guitar 1


E---------------------------------------------------------------( the 5
B--------------------------------------------------------------- 5 thingy
G--------------------------------5----55-----5----5------------- isnt 100%
D-7----------------------------5-5--5-55-----5-5--5-55---------- correct)
A-7--(let it ring)-------------5----5----------5----55----------
E-5-------------------------------------------------------------


guitar 2


E----------------------------------------------------------------
B----------------------------------------------------------------
G-----------------------------555555555555-----------------------
D-777777777777--333333333333--555555555555--555555555555---------
A-777777777777--333333333333--333333333333--555555555555---------
E-555555555555--111111111111----------------333333333333---------
xxxxxxxxxxxx xxxxxxxxxxxx xxxxxxxxxxxx xxxxxxxxxxxx

(verse 1 continued)


guitar 1


E------------------------------------------------------------------
B------------------------------------------------------------------
G---5-----55----5-----5--------5----55---5-------------------------
D-5-5---5-55----5-5---5-55---5-5--5-55---5--5----5/4/5-------------
A-5-----5---------5-----55---5----5---------5----------------------
E------------------------------------------------------------------


guitar 2



E----------------------------------------------------------------
B----------------------------------------------------------------
G-----------------------------555555555555-----------------------
D-777777777777--333333333333--555555555555--555555555555---------
A-777777777777--333333333333--333333333333--555555555555---------
E-555555555555--111111111111----------------333333333333---------
xxxxxxxxxxxx xxxxxxxxxxxx xxxxxxxxxxxx xxxxxxxxxxxx


Pre chorus


E--------------------------
B--------------------------
G--------------------------
D-333-333-2-5555s777-------
A-333-333-2-5555s777-------
E-111-111-0-3333s555-------


chorus 1


E--------------------------------------[-----]---]
B--------------------------------------[-----]---]
G-----------555------------------5555--[-----]---]
D-777--333--555--555--3333-3333--5555--[-555-]-5-] x2
A-777--333--333--555--3333-3333--3333--[-555-]-5-]
E-555--111-------333--1111-1111--------[-333-]-3-]


pre verse


Guitar 1


E----------------------------------------------------
B-53--------63-----------53-----------83-------------
G----------------------------------------------------
D----------------------------------------------------
A----------------------------------------------------
E----------------------------------------------------


Guitar 2


E----------------------------------------------------
B-333-55555--333-555-----333-55555--888-333----------
G--------------------55---------------------55-------
D----------------------------------------------------
A----------------------------------------------------
E----------------------------------------------------


verse 2


guitar 1


E---------------------------------------------------------------( the 5
B--------------------------------------------------------------- 5 thingy
G--------------------------------5----55-----5----5------------- isnt 100%
D------------------------------5-5--5-55-----5-5--5-55---------- correct)
A------------------------------5----5----------5----55----------
E--------------------------------------------------------------


guitar 2




E----------------------------------------------------------------
B----------------------------------------------------------------
G-----------------------------555555555555-----------------------
D-777777777777--333333333333--555555555555--555555555555---------
A-777777777777--333333333333--333333333333--555555555555---------
E-555555555555--111111111111----------------333333333333---------
xxxxxxxxxxxx xxxxxxxxxxxx xxxxxxxxxxxx xxxxxxxxxxxx


(verse 2 continued)


Guitar 1


E------------------------------------------------------------------
B------------------------------------------------------------------
G---5-----55----5-----5--------5----55---5-------------------------
D-5-5---5-55----5-5---5-55---5-5--5-55---5--5----5/4/5-------------
A-5-----5---------5-----55---5----5---------5----------------------
E------------------------------------------------------------------


guitar 2


E----------------------------------------------------------------
B----------------------------------------------------------------
G-----------------------------555555555555-----------------------
D-777777777777--333333333333--555555555555--555555555555---------
A-777777777777--333333333333--333333333333--555555555555---------
E-555555555555--111111111111----------------333333333333---------
xxxxxxxxxxxx xxxxxxxxxxxx xxxxxxxxxxxx xxxxxxxxxxxx


pre chorus


E--------------------------
B--------------------------
G--------------------------
D-333-333-2-5555s777-------
A-333-333-2-5555s777-------
E-111-111-0-3333s555-------


chorus 2


E--------------------------------------[-----]---]
B--------------------------------------[-----]---]
G-----------555------------------5555--[-----]---]
D-777--333--555--555--3333-3333--5555--[-555-]-5-] x2
A-777--333--333--555--3333-3333--3333--[-555-]-5-]
E-555--111-------333--1111-1111--------[-333-]-3-]


Bridge


E--------------------------------------------------
B----------------------6-----6---------------------
G--------55-----------5-------5-5555-54------45----
D-77-33--55--55---777----333----5555----5555-------
A-77-33--33--55---777----333----3333----5555-------
E-55-11------33---555----111------------3333-------



E--------------------------------------------------
B--------------------------------------------------
G------------------------------5555555---------
D-222-333--355555555--222-333-555555555------------
A-222-333--355555555--222-333-333333335------------
E-000-111--133333333--000-111-3-------3-------------



Only4givenOnce! - 2007-02-23

Hey If any one cares I play this song in drop D tuning and trust thats the easy way to play the song, and its' eaiser to play the solo in drop D also, even though the solo is already easy, anybody want 2 know the solo send me a message,I'll try to tab it, or I'll just post it here anyway if you ask, Pz out
By the way people My name is,

Mark Stephens Jr.,AKA, OnlyForgivenOnce ,turning 18 April 07,
Starting my own christian band, or just going solo cause thats what the other chistian bands I talk to say I should do until I find the right people for my band, been playing guitar any kind 4 a few years now, piano who knows how long, I think sense I could reach the piano keys,LOL, and I can play in the percussion section as well. pz out peeps.............


Add a comment/correction

Complimentary Christian Ringtones
Dadamobile and CGR have teamed up to bring your favorite Christian artists right to your phone. Sign up today and get 10 complementary ringtones!
Tab Country
Did you know CGR has a sister site w/ country guitar tabs? Well we do! Its called Tab Country. It has a great archive with a lot of country tabs.
Rockin Tabs
Are you looking for a site that has rock guitar tabs? Then Rockintabs.com is the place for you. It is a budding site with many rock guitar tabs. Submit your tab today.
Tab Gallery
Tab Gallery has a compilation of christian, rock, and country tabs all in one place. Come visit us.