Guitar Tabs
song title    band name

Join Us Today!

Don't strum alone...
be a part of the largest online Christian music community. Browse thousands of guitar tabs and chat w/ musicians like yourself.


It's Free!

This tab has been rated a 4.77 out of 5 for accuracy. (13 votes)Sorry, but you must be logged in to rate this tab.
Click here to log-in, or you can click here to register.
(Registration is free)

All songs owned by corresponding publishing company. If you make copies of any song on this website, be sure to report your usage to CCLI.
Submitted by: Adam K

Kutless-Hearts Of The Innocent
From:Hearts Of The Innocent
Copyright  2006 BEC Records
Drop C# Tuning C#-G#-C#-F#-A#-D#

h=hammer on
b=bend
sd=slide down

Intro
C#[------------------------------------------------------------10--x7/7-x7/7-]
G#[------------------------------------------------------------10--x7/7-x7/7-]
C#[0/2-0/2-0/2-0/2-5-5-0/2-0/2-0/2-0/2-7-7-0/2-0/2-0/2-0/2-5-5-10--x7/7-x7/7-]
Then
C#[0/2-0/2-0/2-0/2-5-5-0/2-0/2-0/2-0/2-7-7-0/2-0/2-0/2-0/2-5-5-10--x7/7-x7/7-]
G#[0/2-0/2-0/2-0/2-5-5-0/2-0/2-0/2-0/2-7-7-0/2-0/2-0/2-0/2-5-5-10--x7/7-x7/7-]
C#[0/2-0/2-0/2-0/2-5-5-0/2-0/2-0/2-0/2-7-7-0/2-0/2-0/2-0/2-5-5-10--x7/7-x7/7-]

Verse 1
Gtr. 1
D#[-0------0-----------------]
A#[---3------3----------0----]
F#[-----0------2------0------]
C#[---------------2h4--------]
Then
Gtr. 2
C#[-7-7/7-0-0/0-5-5--]
G#[-7-7/7-0-0/0-5-5--]
C#[-7-7/7-0-0/0-5-5--]
Then
Gtr. 1
D#[-0------0-----------------]
A#[---3------3----------0----]
F#[-----0------2------0------]
C#[---------------2h4--------]
Then
Gtr. 2
C#[-7-7/7-0-0/0-5-5--]
G#[-7-7/7-0-0/0-5-5--]
C#[-7-7/7-0-0/0-5-5--]

Pre-Chorus
Gtr. 2
C#[-10----7----10----2-4-5-7-4/0--]
G#[-10----7----10----2-5-5-7-5/0--]
C#[-10----7----10----2-4-5-7-4/0--]
Gtr. 1
D#[-------7/7---------------10/10---------------7/7----8/7--]
A#[-8/8----------8----8/8------------8----8/8---------------]
F#[----9/9---9/9---9-----9/9-----9/9---9-----9/9---9/9------]

Chorus
Gtr. 2
C#[-2----5----10----0/2-0/2-0/2-0/2-5-5--]
G#[-2----5----10----0/2-0/2-0/2-0/2-5-5--]x2
C#[-2----5----10----0/2-0/2-0/2-0/2-5-5--]
Then
C#[-2----5----10--x7/7-x7/7--]
G#[-2----5----10--x7/7-x7/7--]
C#[-2----5----10--x7/7-x7/7--]
Gtr. 1
D#[-------------------------------------------------------------7-------]
A#[---------------------------------------------------------8-------8---]x2
F#[-7h9-9/9/9/9/9/9/9/9/9/9/9/9-7h9-9/9/9/9/9/9/9/9/9/9/9/9---9---9---9-]

D#[-------------------------------------------------------------10------]
A#[---------------------------------------------------------8-------8---]
F#[-7h9-9/9/9/9/9/9/9/9/9/9/9/9-7h9-9/9/9/9/9/9/9/9/9/9/9/9---9---9---9-]

Verse 2
(Same as Verse 1)

Pre-Chorus

Chorus

Post-Chorus
C#[------------------------------------------------------------10--7--]
G#[------------------------------------------------------------10--7--]
C#[0/2-0/2-0/2-0/2-5-5-0/2-0/2-0/2-0/2-7-7-0/2-0/2-0/2-0/2-5-5-10--7--]

Bridge
Gtr. 2
C#[0/2-0/2-0/2-0/2-5-5-0/2-0/2-0/2-0/2-7-7-0/2-0/2-0/2-0/2-5-5-10----7----10-]
G#[0/2-0/2-0/2-0/2-5-5-0/2-0/2-0/2-0/2-7-7-0/2-0/2-0/2-0/2-5-5-10----7----10-]
C#[0/2-0/2-0/2-0/2-5-5-0/2-0/2-0/2-0/2-7-7-0/2-0/2-0/2-0/2-5-5-10----7----10-]

C#[-2-4-5-7-4/0--]
G#[-2-5-5-7-5/0--]
C#[-2-4-5-7-4/0--]
Gtr. 1
A#[-12b-10-8--8/10/8--8b-----12b-10-8--8/10/8---]
F#[--9b-------------9---9-----9b-------------9--]

A#[---10-12---10-12---10-12--13/12------10-12---10sd--]
F#[-9-------9-------9-------------12--9-------9-------]

F#[-9-11-12-14-11/7--]
C#[-x--x--x--x--x/x--]
G#[-7--9-10-12--9/5--]

Chorus

Ending
Gtr. 2
C#[-2-4-5-7-4/0--]
G#[-2-5-5-7-5/0--]x3
C#[-2-4-5-7-4/0--]
Gtr. 1
F#[-9-11-12-14-11/7--]
C#[-x--x--x--x--x/x--]x3
G#[-7--9-10-12--9/5--]


Tabbed by Adam K
======================================================
======================================================

Kutless
Album:Hearts of the Innocent
Released:Mar. 21/2006
BEC RECORDINGS
written by Kutless
Produced by Aaron Sprinkle
drop-d 

e----------------------------------------------------|
b----------------------------------------------------|
g----------------------------------------------------|
d-02020202-/55--02020202-/77-02020202-/55-8888--x5x5-|  (2x)
a-02020202-/55--02020202-/77-02020202-/55-8888--x5x5-|
d-02020202-/55--02020202-/77-02020202-/55-8888--x5x5-|

that was the intro(so i think). use distortion.  this is a cool song. someone
please figure out the rest.please let me know of any corrections you have.
cool song, have a good day :-)

Comments about this tab

Falcon-fever777 - 2006-04-14

well I was going to submit this song, but my tab was almost exactly as yours. Very well done. I'll say this you've got quite an ear Adam K. Good Job and keep going!


fireproof101 - 2006-04-14

WHAT?! They put your up first?!

Oh well, this was about the same as mine and yours is easier to understand.

Good job, btw. =P


krazykrutchfan4 - 2006-04-22

pretty sweet tab man nice ear
this is a greta song
-krazykrutchfan-


krazykrutchfan4 - 2006-04-22

i meant great song :p
sorry i cant spell


Rockin4MyChrist - 2006-05-02

great tab Adam. Ive used some of your other tabs you submitted and they sound great. Nice ear for God.


AllForHim2008 - 2006-05-10

Man i was fixin to submit the same tab and it was exactly like yours. Like the guy above me, ive used alot your other submitted tabs and they were all awesome God has blessed you with an ear, keep using it
God Bless,


AllForHim2008 - 2006-05-10

any one that can tab Million Dollar Man, please try and submit it, ive tried but i havent gotten all of the song right.
God Bless


wanabeguitarist - 2006-05-29

i got on another website & it had diff. tunings on the guitar. would it come out the same. also what is the slash line between the notes? i am new @ this so i might ask alot of ?'s. please bear with me. thanx


trmcello24 - 2006-05-29

this is a response to the last comment. the slashes between the numbers are just saying that there is not alot of time between the notes. it's the same as saying, 0-2-0-2-0-2-5-5. you'll get the hang of it.


Red_fiend - 2006-11-20

when it says 7/7 how do you do that? do you just play 7 and then slide up and then play 7? or is there some trick to this.


Andyc92 - 2006-12-15

If I am not mistaken I think the intro/post-chorus/and gtr.2 bridge part should be:

C# [0/2 0/2 0/2 0/2 5/5 0/2 0/2 0/2 0/2 7/7 0/2 0/2 0/2 0/2 5/5 10/10/10/10 77x77]
G# [0/2 0/2 0/2 0/2 5/5 0/2 0/2 0/2 0/2 7/7 0/2 0/2 0/2 0/2 5/5 10/10/10/10 77x77]
C# [0/2 0/2 0/2 0/2 5/5 0/2 0/2 0/2 0/2 7/7 0/2 0/2 0/2 0/2 5/5 10/10/10/10 77x77]

I think this is right, with the 10 4x instead of just once.
Great tab though. You have the greatest ear on theis site.
God Bless.


guitarcordfreak - 2007-02-09

I have the tab book and this is almost exactaly the same except for the solo(it needs a little work), other than that good job!!!


prsfan21 - 2007-02-22

Wow this song is like almost perfect!


TwilightLink3 - 2007-05-03

This is a great Tab, but it isn't perfect. Once i play it with Distortion, I'll let you know what's wrong. Otherwise, very good job, it's an excellent tab.


TwilightLink3 - 2007-05-15

I just got my Distortion pedal, and I must say, even if I played it on Overdrive, I'd hear from someone in the house, "Now that sound like Kutless!". Great Tab for sure.


WashburnGuitar9 - 2007-06-02

hey twilight link, I bet you play ZELDA!


WashburnGuitar9 - 2007-06-06

eh.....it's an ok tab...I mean they dont really play it in Drop C they play in regular tuning so here it is!

E[
B[
G[
D[
A[------------------------------------------1010--xx9xx9]
E[-02020202/55/02020202/7702020202/55-------8-8---xx7xx7]


E[-0-----------0---------------------------]
B[----3-----------3------------------------]
G[------0------------2------0--------------]
D[----------------------0-2----------------]
A[-------------------------------1010xx9xx9]
E[-------------------------------8--8xx7xx7]

and power chords all the way and they play power chords in everysong so....but good tab though Drop C playa


bassfreek208 - 2007-09-15

no, they definitely play it in C# tuning. I saw them live on the GO tour with the Newsboys, and I have the Live from Portland DVD and CD, and they definitely play it in C# tuning. that isn't to say that it can't be played in normal tuning, with all the same notes, but an octave above. I've played it both ways (when I'm too lazy to tune down my electric)
sweet tab, by the way. I think the solo is a little different, but yours still sounds pretty good.


DeathIsLife - 2008-07-23

Hey i went to the go tour with newsboys it was intence lol drums it was crazy


Add a comment/correction

Complimentary Christian Ringtones
Dadamobile and CGR have teamed up to bring your favorite Christian artists right to your phone. Sign up today and get 10 complementary ringtones!
Tab Country
Did you know CGR has a sister site w/ country guitar tabs? Well we do! Its called Tab Country. It has a great archive with a lot of country tabs.
Rockin Tabs
Are you looking for a site that has rock guitar tabs? Then Rockintabs.com is the place for you. It is a budding site with many rock guitar tabs. Submit your tab today.
Tab Gallery
Tab Gallery has a compilation of christian, rock, and country tabs all in one place. Come visit us.