Guitar Tabs
song title    band name

Join Us Today!

Don't strum alone...
be a part of the largest online Christian music community. Browse thousands of guitar tabs and chat w/ musicians like yourself.


It's Free!

This tab has not yet been rated for accuracy.Sorry, but you must be logged in to rate this tab.
Click here to log-in, or you can click here to register.
(Registration is free)

All songs owned by corresponding publishing company. If you make copies of any song on this website, be sure to report your usage to CCLI.
Submitted by: Addero

Haste The Day
Burning Bridges
Breaking My Own Heart
 2004 Solid State Records
Drop D - Tuning DADGBE
Tabbed By: Jeremy Waterman

Well, this is officially my second tab. This is most of the song, but I still havn't figured out any of the
solos, so I'll finish it up once I get all those. (The solos the
second guitar in verse 1, and the whole post-chorus) just thought
I'd post what I have already, especially since there isn't a tab for
this song on CGR already. If you have any comments, corrections or
things of important-ness, you can send them to addero@hotmail.com

Legend:
/ Slide Up
\ Slide Down
h Hammer On
p Pull Off

Intro
E[-----------------------------------------------]
B[-----------------------------------------------]
G[-----------------------------------------------]
D[-10-xxxxxxx-10-8-10-8h10p8-6-xxxxxxx-8-xxxxxxx-] (x2)
A[-10-xxxxxxx-10-8-10-8h10p8-6-xxxxxxx-8-xxxxxxx-]
D[-10-xxxxxxx-10-8-10-8h10p8-6-xxxxxxx-8-xxxxxxx-]

E[-----------------------------------------------]
B[-----------------------------------------------]
G[-----------------------------------------------]
D[-10-xxxxxxx-10-8-10-8h10p8-6-6666666-8-8888888-] (x2)
A[-10-xxxxxxx-10-8-10-8h10p8-6-6666666-8-8888888-]
D[-10-xxxxxxx-10-8-10-8h10p8-6-6666666-8-8888888-]

Verse 1
E[-----------------------------------------------]
B[-----------------------------------------------]
G[-----------------------------------------------]
D[-10-xxxxxxx-10-8-10-8h10p8-6-6666666-8-8888888-] (x2)
A[-10-xxxxxxx-10-8-10-8h10p8-6-6666666-8-8888888-]
D[-10-xxxxxxx-10-8-10-8h10p8-6-6666666-8-8888888-]


E[-----------------------------------------]
B[-----------------------------------------]
G[-----------------------------------------]
D[-7--7-5--5--5-3--3--3-2---2h3-/-5--3p2h3-] (x3)
A[-5-------3-------1-----------------------]
D[-----------------------------------------]

E[-------------------]
B[-------------------]
G[-------------------]
D[-7--7-5--5--5-3--3-] (Let Ring)
A[-5-------3-------1-]
D[-------------------]

Pre-Chorus
E[-------------------------------------]
B[-------------------------------------]
G[-----2---------2---------2---------2-]
D[---3---------3---------3---------3---] (x3)
A[-5--5------3--3------1--1------1--1--]
D[-------------------------------------]

E[-----------------------]
B[-----------------------]
G[-----2---------2-----3-]
D[---3---------3-------3-]
A[-5--5------3--3------1-]
D[-----------------------]

Chorus
E[---------------------------------]
B[---------------------------------]
G[-7---7-7\5-55--55\3--3-33-3-3333-]
D[-7---7-7\5-55--55\3--3-33-3-3333-] (x4)
A[-5---5-5\3-33--33\1--1-11-1-1111-]
D[---------------------------------]

Post-Chorus
 This is the other solo-ing that I've yet to figure out, but
 you should expect me to have it done within a week or so. If
 not, I'll be glad to take any help that anyone has to offer,
 and of course, I'll give you credit for that. If I don't, you
 can sue me for the ammount of one cookie and a paper clip.
 (I'd offer more, but I'm a little short on cash right now)
 After this, it goes back to:

Chorus
E[---------------------------------]
B[---------------------------------]
G[-7---7-7\5-55--55\3--3-33-3-3333-]
D[-7---7-7\5-55--55\3--3-33-3-3333-] (x3)
A[-5---5-5\3-33--33\1--1-11-1-1111-]
D[---------------------------------]

E[---------------------------]
B[---------------------------]
G[-7---7-7\5-55--55\3------3-]
D[-7---7-7\5-55--55\3------3-] (Let Ring)
A[-5---5-5\3-33--33\1------1-]
D[---------------------------]

Comments about this tab

No comments/corrections found. Add your own

Complimentary Christian Ringtones
Dadamobile and CGR have teamed up to bring your favorite Christian artists right to your phone. Sign up today and get 10 complementary ringtones!
Tab Country
Did you know CGR has a sister site w/ country guitar tabs? Well we do! Its called Tab Country. It has a great archive with a lot of country tabs.
Rockin Tabs
Are you looking for a site that has rock guitar tabs? Then Rockintabs.com is the place for you. It is a budding site with many rock guitar tabs. Submit your tab today.
Tab Gallery
Tab Gallery has a compilation of christian, rock, and country tabs all in one place. Come visit us.