Guitar Tabs
song title    band name

Join Us Today!

Don't strum alone...
be a part of the largest online Christian music community. Browse thousands of guitar tabs and chat w/ musicians like yourself.


It's Free!

This tab has not yet been rated for accuracy.Sorry, but you must be logged in to rate this tab.
Click here to log-in, or you can click here to register.
(Registration is free)

All songs owned by corresponding publishing company. If you make copies of any song on this website, be sure to report your usage to CCLI.
Submitted by: i_slamguitar

Relient K 
Falling Out 
 
*=pm 
 
intro:e-3-3-3-3-3-3-3-3-3-3-3-3-3-3-3-3-3-3-3-3-3-3-3-3-3-3-3-3-3-3-- 
      b--3-3-3-3-3-3-3-3-4-4-4-4-4-4-4-4-3-3-3-3-3-3-3-3-3-3-3-1-1-1- 
      g-------------------------------------------------------------- 
      d-------------------------------------------------------------- 
      a-------------------------------------------------------------- 
      E-------------------------------------------------------------- 
 
      e-------------------------------------------------------------- 
      b-------------------------------------------------------------- 
      g-33333333-55555555-88888888----------------------------------- 
      d-33333333-55555555-88888888-5555-3333-x2---------------------- 
      a-11111111-33333333-66666666-5555-3333-------------------------  
      E----------------------------3333-1111------------------------- 
 
verse1:e-------------------------------------------------------------- 
       b-------------------------------------------------------------- 
       g-33333333-55555555-88888888----------------------------------- 
       d-33333333-55555555-88888888-5555-3333-x2---------------------- 
       a-11111111-33333333-66666666-5555-3333------------------------- 
       E----------------------------3333-1111------------------------- 
         ******** ******** ******** **** **** 
Chorus:e------------------------------------------------------- 
       b-------------------------------------------------------------- 
       g-77-77-88888888----------------------------------------------- 
       d-77-77-88888888-88888888-33333333-x2-------------------------- 
       a-55-55-66666666-88888888-33333333----------------------------- 
       E----------------66666666 11111111----------------------------- 
 
verse2:e-------------------------------------------------------------- 
       b-------------------------------------------------------------- 
       g-33333333-55555555-88888888----------------------------------- 
       d-33333333-55555555-88888888-5555-3333------------------------- 
       a-11111111-33333333-66666666-5555-3333------------------------- 
       E----------------------------3333-1111------------------------- 
         ******** ******** ******** **** **** 
Chorus 
Chorus2:e-------------------------------------------------------------------- 
        b-------------------------------------------------------------------- 
        g-3333333333333333-5555555555555555------------------8888888888888888 
        d-3333333333333333-5555555555555555-5555555555555555-8888888888888888 
        a-1111111111111111-3333333333333333-5555555555555555-6666666666666666 
        E-----------------------------------3333333333333333----------------- 
 
(piano break then come in with this)e 
                                    b 
                                    g 
                                    d-333------   
                                    a-333------ 
                                    E-111------ 
 
Bridge:e--------------------------------------------- 
       b--------------------------------------------- 
       g----------------------------88-55------------ 
       d-66666666-55555555-33333333-88-55-55--------- 
       a-66666666-55555555-33333333-66-33-55--------- 
       E-44444444-33333333-11111111-------33--------- 
 
Chorus(first four chords are pm but the rest are open) 
Chorus2 
 
Outro:e------------------------------------------------------------------- 
      b------------------------------------------------------------------- 
      g-33333333-55555555-88888888----------------3----------------------- 
      d-33333333-55555555-88888888-5555-3333-x2---3----------------------- 
      a-11111111-33333333-66666666-5555-3333------1----------------------- 
      E----------------------------3333-1111------------------------------ 
 
It's my first tab so Im pretty sure its accurate. 
                    rock for him, 
                     i_slamguitar

Comments about this tab

guitardude00 - 2006-10-13

Good Tabbing Dude !
O WEll L8r
~Guitardude00


Buki - 2008-07-18

This tab looks so perfect. I'm excited to work on it.


Add a comment/correction

Complimentary Christian Ringtones
Dadamobile and CGR have teamed up to bring your favorite Christian artists right to your phone. Sign up today and get 10 complementary ringtones!
Tab Country
Did you know CGR has a sister site w/ country guitar tabs? Well we do! Its called Tab Country. It has a great archive with a lot of country tabs.
Rockin Tabs
Are you looking for a site that has rock guitar tabs? Then Rockintabs.com is the place for you. It is a budding site with many rock guitar tabs. Submit your tab today.
Tab Gallery
Tab Gallery has a compilation of christian, rock, and country tabs all in one place. Come visit us.