Guitar Tabs
song title    band name

Join Us Today!

Don't strum alone...
be a part of the largest online Christian music community. Browse thousands of guitar tabs and chat w/ musicians like yourself.


It's Free!

This tab has been rated a 4.64 out of 5 for accuracy. (11 votes)Sorry, but you must be logged in to rate this tab.
Click here to log-in, or you can click here to register.
(Registration is free)

All songs owned by corresponding publishing company. If you make copies of any song on this website, be sure to report your usage to CCLI.
Submitted by: Paul86

Artist: Hillsong United
Album: United We Stand
Track: Take it all
Track #: 3

Quality album by hillsongs united. This has been tabbed by Paul Martin from
Hope church York (www.hopechurchuk.com) . Any comments then email me 
at paulm86@gmail.com.
Enjoy the song, thanks to Jeff Ku for some of the tab.
You can hear the track at http://www2.hillsong.com/resource/0103-TakeItAll.mp3


Chords
B:	x24442 or every now and again play "[9][11][12]x"
G#m	466444
E	022100 or x799xx
F#	244322
C#m	x42


Intro + Verse
Guitar
|----------------------14------------------------12--|
|--14-14--12-12--11-11-------14-14--12-12--11-11-----|
|----------------------------------------------------|   
|----------------------------------------------------|
|----------------------------------------------------|

The delay adds the audibly heard 3rd beat, make sure you set it to min50% mix
rate.
A good setting if you have a Line 6 Pod is using either a multihead delay
with it set to 1-34. Or use your stereo delay and play around with the 
settings. Use tap tempo and set your delay settings to 1 whole note.

Bass: 

G|----------------------------------------------------|
D|----------------------------------------------------|   
A|---2-2-2--2-2-2--2-2-1-1-6-6------------------------|
E|----------------------------------------------------|


Verse 2:
0:25"                   0:41"          
|-----------------------|--------------|
|--444--444--444-33-88--|--------------|
|--444--444--444-33-88--|--66--66--22--|   
|--222--222--222-11-66--|--66--66--22--|
|-----------------------|--44--44--00--|

Chorus
0:45" 
   B F# G#m E  B F# G#m C#m                   
|----------------------------------|
|--4-----------4--------6----------|
|--4--4--6--2--4--4--6--6(bend up)-|
|--2--4--6--2--2--4--6--4----------|
|-----2--4--0-----2--4-------------|


back into the intro after chorus then into verse2.

Pre-Bridge
1:42"
|-----------------------|
|--4444-6666-8888-9999--|
|-----------------------|   
|--2222-4444-6666-7777--|
|-----------------------|

Bridge 1:45"
|-----------------------------------2--------|
|--66--------------66---------3b4r3---3b4r3--|
|--66--66--44--22--66--66--44----------------|   Bridge x 2 but ending on a B
|--44--66--44--22--44--66--44----------------|              (my life....)=B
|------44--22--00------44--22----------------|


----------------------------------------------------------------------------
----------------------------------------------------------------------------

Simple Chords

Verse1:  B all the way through
Verse 2: B - G#m (my god, i'll only...) - E

Chorus:  B - F# - G#m - E 
         B - F#m -C#m

Bridge: C#m - G#m - F# - E  
        C#m - G#m - F#      
        C#m - G#m - F# - E  - B
           


Lyrics
Searching the world
The lost will be found
In freedom we live
As one we cry out
You carried the cross
You died and rose again
My God
I'll only ever give my all

You sent Your Son
From heaven to earth
You delivered us all
It's eternally heard
I searched for truth
And all I found was You
My God
I'll only ever give my all

[chorus]
Jesus we're living Your Name
We'll never be ashamed of You
Our praise and all we are today
Take take take it all
Take take take it all

[bridge]
Running to the One Who heals the blind
Following the shining light
In Your hands The power to save the world
My life


Comments about this tab

druming4god - 2006-04-02

the intro sounds kinda wierd.......


JcRockstar11 - 2006-04-13

sweet this is a awesome tab man keep it up it's great i'm giving you a 5

THANKS


BananaGuitar - 2006-04-19

hey great tab!
i think the bass part would be easier if u played like so tho

Bass:

G|----------------------------------|
D|---------------------------1-1----|
A|-----2-2-2--2-2-2--2-2-1-1--------|
E|----------------------------------|


shongsta - 2006-04-21

Wow...im speechless on this tab!!


gemini050889 - 2006-05-25

bass tab is...

E----------------------
B----------------------
G----------------------
D----------------------
A--------------------66
E---777-777-777-7766---


timmeh123 - 2006-05-27

i might be young but i think
the guitar bit is
e|-----------------------------14----14--------------------------------11----11-----|
B|--14-14-14-12-12-12-11-11-11----11----11--14-14-14-12-12-12-11-11-11----11----11--|
G|----------------------------------------------------------------------------------|
D|----------------------------------------------------------------------------------|
A|----------------------------------------------------------------------------------|
E|----------------------------------------------------------------------------------|

TiMmEhH


Kizza001 - 2006-07-10

chorus chords-
B- x24400
F#- 2x4300
G#m- 466444
E- 022400
C#m- x46654

Bridge chords-
G#- 466444
E- 022400


Kizza001 - 2006-07-10

try the "verse 2" riff on the top string with octaves i personally thing it sounds better
e|-----------------------|--------------|
B|-----------------------|--------------|
G|-------------------88--|--------------|
D|--999--999--999-88-xx--|--66--66--22--|
A|--xxx--xxx--xxx-xx-66--|--66--66--22--|
E|--777--777--777-66-----|--44--44--00--|

well thats it
give it a try and play what you think sound right


minzoir - 2006-09-19

awsome tab. im playing this song with all me mates at our school concert. on tomorro and im nervous(so many people!)
Great song!!!
minzoir or short__sam


minzoir - 2006-09-19

can someone please tell me where i could listen to what the world will never take song by hillsong coz it rocks!!! i heard it being played at youth group and i loved it.so can someone tell me where to get or where to listen.
thanx u guys god bless ya's
from minzoir


Jaymaniac6 - 2006-09-23

HEY GUYS...
the intro to this is way off (no offence), the rest is good tho. :)
this is my interpretation of the intro:

e|-----------------------------|
B|--~~-----15---12---11--15/17-|
G|-/11--11---11---11-----------| = first part of the intro
D|-----------------------------|
A|-----------------------------|
E|-----------------------------|

e|-------------------------|
B|---15---12---11--12b13---|
G|-11---11---11---------11-| = second part of the intro
D|-------------------------|
A|-------------------------|
E|-------------------------|


/ = slide up
~ = vibrato
b = bend

combine the two and u have the intro...
any comments send to: jaymaniac4@hotmail.com
if any ppl want me 2 tab sumthing 4 them send me an email
cheers :)


werdxup - 2006-10-14

no the intro is not off at all its great, what you have tabbed there is just a different version of the song, the one on mighty to save... and its also not entirley correct either


Sauleth - 2006-10-19

Check out the take it all tab above this one in the list...

It goes like this...

-------------------------------------------14--14--14-s-16-------------
--14--14-14-14--12--12-12-12--11--11-11--11--11--11--------------------
-----------------------------------------------------------------------
-----------------------------------------------------------------------
-----------------------------------------------------------------------
-----------------------------------------------------------------------

-------------------------------------------(12)----(12)-(12)-(12)------
--14--14-14-14--12--12-12-12--11--11-11--------(11)--------------------
-----------------------------------------------------------------------
-----------------------------------------------------------------------
-----------------------------------------------------------------------
-----------------------------------------------------------------------

and pre-chorsu goes

-----------------------------------------------------------------------
---(slide harmonics all way up the neck)-------------------------------
-----------------------------------------------------------------------
-----------------------------------------------------------------------
-----------------------------------------------------------------------
-----------------------------------------------------------------------


Sauleth - 2006-10-19

timmeh123 was closest to it! ;) go young guns


Mingi_Jammer - 2006-10-31

well this is a pretty good tab! good job! but the way i play is a little bit different than yours.
ok so the way i play n i think the way United plays it is:

E|-------------------------------14-14---------------------------------12-12
B|14-14-14--12-12-12--11-11--12---------14-14-14--12-12-12--11-11--12------
G|------------------------------------------------------------------------- (x2)
D|-------------------------------------------------------------------------
A|-------------------------------------------------------------------------
E|-------------------------------------------------------------------------

you can kinda softly play the 3rd B|-14 and B|-12, just to give it a little fill but not making it an actual note.

Hey Jaymaniac6! What you were tabbing is the Take It All in the Mighty To Save CD. We are tabbing the Take It All from the United We Stand CD. But anyway, your tabbing was just about right but i think this way is more accurate:

E|-------9----------------------9h11-------9-------------------------------
B|---------------12-------11-----------------------12----11----11s12s11----
G|----11------11-------11---------------11------11----------11----------11- (x2)
D|--9-------9--------9--------9-------9-------9--------9-------------------
A|-------------------------------------------------------------------------
E|-------------------------------------------------------------------------

OK then! In case anybody wants to ask me for other tabs, my e-mail is andg54@hotmail.com
Rock On!


Mingi_Jammer - 2006-10-31

well this is a pretty good tab! good job! but the way i play is a little bit different than yours.
ok so the way i play n i think the way United plays it is:

E|-------------------------------14-14---------------------------------12-12
B|14-14-14--12-12-12--11-11--12---------14-14-14--12-12-12--11-11--12------
G|------------------------------------------------------------------------- (x2)
D|-------------------------------------------------------------------------
A|-------------------------------------------------------------------------
E|-------------------------------------------------------------------------

you can kinda softly play the 3rd B|-14 and B|-12, just to give it a little fill but not making it an actual note.

Hey Jaymaniac6! What you were tabbing is the Take It All in the Mighty To Save CD. We are tabbing the Take It All from the United We Stand CD. But anyway, your tabbing was just about right but i think this way is more accurate:

E|-------9----------------------9h11-------9-------------------------------
B|---------------12-------11-----------------------12----11----11s12s11----
G|----11------11-------11---------------11------11----------11----------11- (x2)
D|--9-------9--------9--------9-------9-------9--------9-------------------
A|-------------------------------------------------------------------------
E|-------------------------------------------------------------------------

OK then! In case anybody wants to ask me for other tabs, my e-mail is andg54@hotmail.com
Rock On!


ozwizz70 - 2007-09-08

Great and accurate TAB by Paul86. To all other guys submitting comments, please note that we have more that one guitar playing. Guitar 1 is not doing everything as many are trying to guess.


Add a comment/correction

Complimentary Christian Ringtones
Dadamobile and CGR have teamed up to bring your favorite Christian artists right to your phone. Sign up today and get 10 complementary ringtones!
Tab Country
Did you know CGR has a sister site w/ country guitar tabs? Well we do! Its called Tab Country. It has a great archive with a lot of country tabs.
Rockin Tabs
Are you looking for a site that has rock guitar tabs? Then Rockintabs.com is the place for you. It is a budding site with many rock guitar tabs. Submit your tab today.
Tab Gallery
Tab Gallery has a compilation of christian, rock, and country tabs all in one place. Come visit us.