Guitar Tabs
song title    band name

Join Us Today!

Don't strum alone...
be a part of the largest online Christian music community. Browse thousands of guitar tabs and chat w/ musicians like yourself.


It's Free!

This tab has been rated a 5.00 out of 5 for accuracy. (1 vote)Sorry, but you must be logged in to rate this tab.
Click here to log-in, or you can click here to register.
(Registration is free)

All songs owned by corresponding publishing company. If you make copies of any song on this website, be sure to report your usage to CCLI.
Submitted by: Rockin_4_Yeshua

Artist: Jeremy Camp
Title: This Man
Album: Restored
Tabber: Stephen Scoggins(Rockin_4_Yeshua)



INTRO + VERSES:

E---------------------|---------------------|
B----0-------0------0-|----0-------0------0-|
G------0-------0------|------0-------0------|
D---------------------|---------------------| X2
A--3-----/-5------5---|--2-----/-3------3---| 
E---------------------|---------------------|

E---------------------|-----------------------|-----------------------|
B----0-------0------0-|----0------0------0----|----0------0------0----|
G------0-------0------|------0------0---------|------0------0---------|
D---------------------|-----------------------|-----------------------|
A--3-----/-5------5---|--7------7------7------|--5------5------5------|
E---------------------|-----------------------|-----------------------|
                                              (play this last measure 2x)
Chords used in the song:   

   C   Em  D/F#  G  Asus
E--3---3----3----3------------------------------
B--3---3----3----3---3--------------------------
G-----------2--------0--------------------------
D--------------------2--------------------------
A--3---2----------------------------------------
E-----------2----3------------------------------


PRE CHORUS:

C   Em   D/F#
C   Em   D/F#

CHORUS:

Em   C    G    D/F#
Em   C    G    D/F#
Em   C    G    D/F#
Em   C    G    D/F#   C (end on this chord)

VERSE 2:


PRE CHORUS:

C   Em   D/F#
C   Em   D/F#

CHORUS:

Em   C    G    D/F#
Em   C    G    D/F#
Em   C    G    D/F#
Em   C    G    D/F#   C (end on this chord)

BRIDGE:

C   Asus
C   Asus
C   Asus

INTERLUDE:

E---------------------|---------------------|
B----0-------0------0-|----0-------0------0-|
G------0-------0------|------0-------0------|
D---------------------|---------------------| 
A--3-----/-5------5---|--2-----/-3------3---| 
E---------------------|---------------------|

E---------------------|-----------------------|
B----0-------0------0-|----0------0------0----|
G------0-------0------|------0------0---------|
D---------------------|-----------------------|
A--3-----/-5------5---|--7------7------7------|
E---------------------|-----------------------|

PRE CHORUS:

C   Em   D/F#
C   Em   D/F#

CHORUS:

Em   C    G    D/F#
Em   C    G    D/F#
Em   C    G    D/F#
Em   C    G    D/F#

End the song using the chords from the chorus.


Hope this tab was helpful. I tabbed it from the unplugged version.

Comments about this tab

jbeard - 2007-02-18

I am trying to figure out how you are playing the chords.
C Em D/F# G Asus
E--3---3----3----3------------------------------
B--3---3----3----3---3--------------------------
G-----------2--------0--------------------------
D--------------------2--------------------------
A--3---2----------------------------------------
E-----------2----3------------------------------

Are you muting the notes or are you playing them open?


Add a comment/correction

Complimentary Christian Ringtones
Dadamobile and CGR have teamed up to bring your favorite Christian artists right to your phone. Sign up today and get 10 complementary ringtones!
Tab Country
Did you know CGR has a sister site w/ country guitar tabs? Well we do! Its called Tab Country. It has a great archive with a lot of country tabs.
Rockin Tabs
Are you looking for a site that has rock guitar tabs? Then Rockintabs.com is the place for you. It is a budding site with many rock guitar tabs. Submit your tab today.
Tab Gallery
Tab Gallery has a compilation of christian, rock, and country tabs all in one place. Come visit us.