Guitar Tabs
song title    band name

Join Us Today!

Don't strum alone...
be a part of the largest online Christian music community. Browse thousands of guitar tabs and chat w/ musicians like yourself.


It's Free!

This tab has been rated a 4.50 out of 5 for accuracy. (4 votes)Sorry, but you must be logged in to rate this tab.
Click here to log-in, or you can click here to register.
(Registration is free)

All songs owned by corresponding publishing company. If you make copies of any song on this website, be sure to report your usage to CCLI.
Submitted by: Sk8terrob

This song is played in dropped D

This is my first tab so it probably won't be perfect


Intro
|----------------------------------------|-----------------------------------|
|----------------------------------------|-----------------------------------|
|-------6/7-----11-------9-----13/16\14--|-------6/7-----11-------9---9-9-9--|
|-------x/x------x-------x------x/-x\-x--|-------x/x------x-------x---x-x-x--|x3
|-------4/5------9-------7-----11/14\12--|-------4/5------9-------7---7-7-7--|
|-0-0-0-----0-0----0-0-0---0-0-----------|-0-0-0-----0-0----0-0-0---0--------|


Kick-in
|----------------------------------------|------------------------------------|
|----------------------------------------|------------------------------------|
|--------6/7-----11---------9-------6/7--|--------6/7----11---------9---9-9-9-|
|-0-2-0--x/x------x--0-4-5--x--0-2--x/x--|-0-2-0--x/x-----x--0-4-5--x---x-x-x-|
|-0-2-0--4/5------9--0-4-5--7--0-2--4/5--|-0-2-0--4/5-----9--0-4-5--7---7-7-7-|
|-0-2-0-------0-0----0-4-5-----0-2-------|-0-2-0------0-0----0-4-5----0-------|


Verse
|----------------------------------------------------|
|----------------------------------------------------|
|-7--7--7-7--7--7-7--7-7-7-------------7--7-7--7-7-7-|
|-7--7--7-7--7--7-7--7-7-7--5--5--5-5--7--7-7--7-7-7-|
|-5--5--5-5--5--5-5--5-5-5--5--5--5-5--5--5-5--5-5-5-|
|---------------------------5--5--5-5----------------|

|----------------------------------------------------|
|---------------------------------------3--3-3-3-2---|
|-5--5--5-5--5--5-5--5-5-5--------------2--2-2-2-2---|
|-5--5--5-5--5--5-5--5-5-5--5--5--5-5---2--2-2-2-2---|x2
|-3--3--3-3--3--3-3--3-3-3--5--5--5-5---0--0-0-0-0---|
|---------------------------5--5--5-5----------------|


Bridge
|--------------------0--|
|--0-----0-----------1--|
|--0-----2-----4-----0--|
|--0-----2-----4-----2--|
|--0-----0-----2-----3--|
|--5--------------------|


Chorus
|--------------------------------------------------------|
|--------------------------------------------------------|
|-7777777777777777--------------------55555555-----------|
|-7777777777777777--5555555555555555--55555555--55555555-|
|-5555555555555555--5555555555555555--33333333--55555555-|
|-------------------5555555555555555------------55555555-|


|-----------------------------------|
|-----------------------------------|
|-------6/7-----11--------9---9-9-9-|
|-0-2-0-x/x------x--0-4-5-x---x-x-x-|
|-0-2-0-4/5------9--0-4-5-7---7-7-7-|
|-0-2-0------0-0----0-4-5---0-------|


|-----------------------------------|
|-----------------------------------|
|-7777777777777777-99999999---------|
|-7777777777777777-99999999--5------|
|-5555555555555555-77777777--5------|
|----------------------------5------|

That's pretty much it, the order goes;

Intro
Kick-in
Verse
Bridge
Chorus
Kick-in
Verse
Bridge
Chorus
Kick-in x2
Bridge x2
Chorus
Kick-in

Please feel free to make any corrections :)

Comments about this tab

Sk8terrob - 2006-04-28

I forgot, the part where he sings, "staaaaars" just play this

|-----------------|
|-----------------|
|-----------------|
|-5555555-444-777-|
|-5555555-444-777-|
|-5555555-444-777-|


MFChrist - 2006-05-13

I think the first line of the intro goes like this.
But i could be wrong.

Intro
|----------------------------------------|-----------------------------------|
|----------------------------------------|-----------------------------------|
|-------6/7-----11-------9-----13/16\14--|-------6/7-----11-------9---9-9-9--|
|-0-0-0-x/x-0-0--x-0-0-0-x-0-0--x/-x\-x--|-0-0-0-x/x-0-0--x-0-0-0-x-0-x-x-x--|
|-0-0-0-4/5-0-0--9-0-0-0-7-0-0-11/14\12--|-0-0-0-4/5-0-0--9-0-0-0-7-0-7-7-7--|
|-0-0-0-----0-0----0-0-0---0-0-----------|-0-0-0-----0-0----0-0-0---0--------|

MFChrist


MFChrist - 2006-05-13

That did not come out right sorry.
it should be this:

Intro
|----------------------------------------|
|----------------------------------------|
|-------6/7-----11-------9-----13/16\14--|
|-------x/x------x-------x------x/-x\-x--|
|-------4/5------9-------7-----11/14\12--|
|-0-0-0-----0-0----0-0-0---0-0-----------|

|-----------------------------------|
|-----------------------------------|
|-------6/7-----11-------9---9-9-9--|
|-------x/x------x-------x---x-x-x--|
|-------4/5------9-------7---7-7-7--|
|-0-0-0-----0-0----0-0-0---0--------|

MFChrist


MFChrist - 2006-05-13

That STILL did not come out right sorry.
it should be this:

Intro
|----------------------------------------|
|----------------------------------------|
|-------6/7-----11-------9-----13/16\14--|
|-0-0-0-x/x-0-0--x-0-0-0-x-0-0--x/-x\-x--|
|-0-0-0-4/5-0-0--9-0-0-0-7-0-0-11/14\12--|
|-0-0-0-----0-0----0-0-0---0-0-----------|

|-----------------------------------|
|-----------------------------------|
|-------6/7-----11-------9---9-9-9--|
|-0-0-0-x/x-0-0--x-0-0-0-x-0-x-x-x--|
|-0-0-0-4/5-0-0--9-0-0-0-7-0-7-7-7--|
|-0-0-0-----0-0----0-0-0---0--------|

MFChrist


GUITAR MASTA - 2007-02-06

WIKED I THINK THATS HOW YOU SPELL WICKED


Add a comment/correction

Complimentary Christian Ringtones
Dadamobile and CGR have teamed up to bring your favorite Christian artists right to your phone. Sign up today and get 10 complementary ringtones!
Tab Country
Did you know CGR has a sister site w/ country guitar tabs? Well we do! Its called Tab Country. It has a great archive with a lot of country tabs.
Rockin Tabs
Are you looking for a site that has rock guitar tabs? Then Rockintabs.com is the place for you. It is a budding site with many rock guitar tabs. Submit your tab today.
Tab Gallery
Tab Gallery has a compilation of christian, rock, and country tabs all in one place. Come visit us.