Guitar Tabs
song title    band name

Join Us Today!

Don't strum alone...
be a part of the largest online Christian music community. Browse thousands of guitar tabs and chat w/ musicians like yourself.


It's Free!

This tab has been rated a 2.50 out of 5 for accuracy. (2 votes)Sorry, but you must be logged in to rate this tab.
Click here to log-in, or you can click here to register.
(Registration is free)

All songs owned by corresponding publishing company. If you make copies of any song on this website, be sure to report your usage to CCLI.
Submitted by: Addero

Emery
Left With Alibis And Lying Eyes
Tabbed By: Jeremy Waterman
Attempted Help
 and Assistant Monkey: Sam Churney
Standard - Tuning: EADGBE

Frig, this is an amazing song. By far, my favorite Emery. So anyways, this
 is my first tab (ever!), so be gentil with the comments and things. Me and
 my friend (Sam, my attempted helper) were considering this wicked song for
 a school talent show, but there wasn't a tab already on the internet, so I
 went to tabbing it myself. Sam fixed the intro for me (a few times xD), but
 everything else here is mine (Dispite Sam's attempted help). If you have
 any comments, corrections or hate mail, they can be sent to:
  addero@hotmail.com (me) or cow_freek13@hotmail.com (Sam)
 Love letters can be sent to addero@hotmail.com

Legend:
/ Slide Up
\ Slide Down
. Palm Mute
x Mute Note

Intro (0:00)
E[-------------------------------------------------------------------------]
B[-------------------------------------------------------------------------]
G[-------------------------------------------------------------------------]
D[-----2--------2--------2--------2--------2--------2--------2--------2----]
A[---4----4---4----4---4----4---4----4---2----2---2----2---2----2---2----2-]
E[-4--4-----4--4-----4--4-----4--4-----2--2-----2--2-----2--2-----2--2-----]
                                                                        (x2)
Verse 1 (0:20)
E[-------------------------------------------------------------------------]
B[-------------------------------------------------------------------------]
G[-------------------------------------------------------------------------]
D[-----2--------2--------2--------2--------2--------2--------2--------2----]
A[---4----4---4----4---4----4---4----4---2----2---2----2---2----2---2----2-]
E[-4--4-----4--4-----4--4-----4--4-----2--2-----2--2-----2--2-----2--2-----]
                                                                        (x4)
Pre-Chorus (0:54)
E[-----------------------]
B[-----------------------]
G[-666/9-99/11-1111\9-99-]
D[-666/9-99/13-1313\7-77-] (let ring; no guitar during vocals
A[-444/7-77/13-1313\7-77-]  of pre-chorus)
E[-----------------------]

Chorus (0:59)
E[------------------------------------------------]
B[------------------------------------------------]
G[-9966--9966-9-6---11-11111111--1111--1111--9-6--]
D[-9966--9966-9-6---11-11111111--1111--1111--9-6--] (x4)
A[-7744--7744-7-4---9--9-9-9-9---9-9---9-9---7-4--]
E[------------------------------------------------]

Post Chorus 1 (1:22)
E[-----------------------------------------]
B[-----------------------------------------]
G[-6--666666666666666----------------------]
D[-6--666666666666666--4--444444444444444--]
A[-4--444444444444444--4--444444444444444--]
E[---------------------2--222222222222222--]

Verse 2
 -Guitar 1 (1:28)
E[-------------------------------------]
B[-------------------------------------]
G[-------------------------------------]
D[---2--2-----2--2-----2--2-----2--2---] (x2)
A[--4--4---4-4--4---4-2--2---2-2--2---2]
E[-4--4-----4--4-----2--2-----2--2-----]

 -Guitar 2 (1:28)
E[-------------------------------------]
B[-------------------------------------]
G[--6666666666666666-------------------]
D[--6666666666666666-4444444444444444--] (x2)
A[--4444444444444444-4444444444444444--]
E[-------------------2222222222222222--]
 PM ................ ................

 -Guitar 1 (1:39)
E[----------------------------------------------]
B[----------------------------------------------]
G[-9--xx-9--xx-9--xx-9--xx-9--xx-9--xx-9--xx-9--]
D[-9--xx-9--xx-9--xx-9--xx-9--xx-9--xx-9--xx-9--] (x2)
A[-7--xx-7--xx-7--xx-7--xx-7--xx-7--xx-7--xx-7--]
E[----------------------------------------------]

 -Guitar 2 (1:39)
E[----------------------------------------------]
B[----------------------------------------------]
G[-11---9----11---9----14-----------------------]
D[-11---9----11---9----14-----------------------]
A[-9----7----9----7----12-----------------------]
E[----------------------------------------------]
           (1:45)
E[----------------------------------------------]
B[----------------------------------------------]
G[-8----4----8----11---6------------------------]
D[-8----4----8----11---6------------------------]
A[-6----2----6----9----4------------------------]
E[----------------------------------------------]

 -Guitar 1 (1:51)
E[----------------------------------------------]
B[----------------------------------------------]
G[-9-xxx-9-xxx-9-xxx-9-xxx-9-xxx-9-xxx-9-xxx-9--]
D[-9-xxx-9-xxx-9-xxx-9-xxx-9-xxx-9-xxx-9-xxx-9--]
A[-7-xxx-7-xxx-7-xxx-7-xxx-7-xxx-7-xxx-7-xxx-7--]
E[----------------------------------------------]

 -Guitar 2 (1:51)
E[----------------------------------------------]
B[----------------------------------------------]
G[-13----9----13----9----11----------11-------6-]
D[-13----9----13----9----11----------11-------6-]
A[-11----7----11----7----9-----------9--------4-]
E[----------------------------------------------]

Chorus (1:57)
E[------------------------------------------------]
B[------------------------------------------------]
G[-9966--9966-9-6---11-11111111--1111--1111--9-6--]
D[-9966--9966-9-6---11-11111111--1111--1111--9-6--] (x4)
A[-7744--7744-7-4---9--9-9-9-9---9-9---9-9---7-4--]
E[------------------------------------------------]

Post Chorus 2 (2:20)
E[----------------------------]
B[----------------------------]
G[--666666666666666666666666/-]
D[--666666666666666666666666/-]
A[--444444444444444444444444/-]
E[----------------------------]
 PM ........................

Bridge (2:25)
E[-----------------------------]
B[-----------------------------]
G[-----------------------------]
D[--\77-----77-----66-----66---]
A[--\77-----77-----66-----66---]
E[--\55-----55-----44-----44---]

E[---------------------------------]
B[---------------------------------]
G[---------------------------------]
D[---77-----77-----66-----99\66/99-]
A[---77-----77-----66-----99\66/99-]
E[---55-----55-----44-----77\44/77-]

 -Guitar 1 (2:33)
E[-----------------------------------------------------]
B[-----------------------------------------------------]
G[-----------------------------------------------------]
D[--666666666666666666666666\444444444444444444444444--] (x2)
A[--666666666666666666666666\444444444444444444444444--]
E[--444444444444444444444444\222222222222222222222222--]
 PM ........................ ........................

 -Guitar 2 (2:33)
E[-----------------------------------------------------]
B[-----------------------------------------------------]
G[--------13----------13-----------11---------11-------]
D[--------13----------13-----------11---------11-------] (x2)
A[--------11----------11-----------9----------9--------]
E[-----------------------------------------------------]

Pre-Chorus (2:50)
E[--------------------------------------------]
B[--------------------------------------------]
G[-666/9-99/11-1111\9-99----9----9----9----11-]
D[-666/9-99/13-1313\7-77----9----9----9----11-] (let ring)
A[-444/7-77/13-1313\7-77----7----7----7----9--]
E[--------------------------------------------]

Chorus (2:58)
E[------------------------------------------------]
B[------------------------------------------------]
G[-9966--9966-9-6---11-11111111--1111--1111--9-6--]
D[-9966--9966-9-6---11-11111111--1111--1111--9-6--] (x3)
A[-7744--7744-7-4---9--9-9-9-9---9-9---9-9---7-4--]
E[------------------------------------------------]

E[------------------------------------------------]
B[------------------------------------------------]
G[-9966--9966-9-6---11-11111111--1111--1111--9-6--]
D[-9966--9966-9-6---11-11111111--1111--1111--9-6--]
A[-7744--7744-7-4---9--9-9-9-9---9-9---9-9---7-4--]
E[------------------------------------------------]
 PM                                          . .

Comments about this tab

Adam K - 2006-04-04

I don't think it's in Standard tuning.(duh)


Addero - 2006-04-04

Well, this sounds good to me, and Sam told me it all sounds good, too. I've had a couple people on UG pm me about this, and they all said that it all looks good. Play it how you want, but I think it sounds fine in standard. (Plus, it takes me too long to tune my guitar to Drop C# and then back when I want to play something else xD) Oh well, even if it is wrong, at least I still tried. xD
Love and Kisses;
Jeremy


Addero - 2006-05-30

I got an email from some guy named Koh Schooley. (I think that was it)
He sent me a correction for the intro, which was a lot better. The intro and the first verse is actually:
E[-------------------------------------------------------------------------]
B[-------------------------------------------------------------------------]
G[-------------------------------------------------------------------------]
D[-----2--------2--------2--------2--------2--------2--------2--------2----]
A[---4----4---4----4---4----4---4----4---4----4---4----4---4----4---4----4-]
E[-4--4-----4--4-----4--4-----4--4-----2--2-----2--2-----2--2-----2--2-----]

And for the second verse, you just change anything on the A string that was written as a 2 to a 4 instead. Have fun. ;)
(By the way: please rate my tab, guys. Anyone who reads it. It's better than 2.5, and that rating's only there because some retard rated it 0. Thanks)


Addero - 2006-05-30

The other one didn't fit, so here it is again.
E[-----------------------------------------------------------------------]
B[-----------------------------------------------------------------------]
G[-----------------------------------------------------------------------]
D[----2--------2--------2--------2--------2--------2--------2--------2---]
A[--4----4---4----4---4----4---4----4---2----2---2----2---2----2---2----2]
E[4--4-----4--4-----4--4-----4--4-----2--2-----2--2-----2--2-----2--2----]


Addero - 2006-05-30

Ugh! Forgot to change the tab last time! Here it is:
E[-----------------------------------------------------------------------]
B[-----------------------------------------------------------------------]
G[-----------------------------------------------------------------------]
D[----2--------2--------2--------2--------2--------2--------2--------2---]
A[--4----4---4----4---4----4---4----4---4----4---4----4---4----4---4----4]
E[4--4-----4--4-----4--4-----4--4-----2--2-----2--2-----2--2-----2--2----]


Add a comment/correction

Complimentary Christian Ringtones
Dadamobile and CGR have teamed up to bring your favorite Christian artists right to your phone. Sign up today and get 10 complementary ringtones!
Tab Country
Did you know CGR has a sister site w/ country guitar tabs? Well we do! Its called Tab Country. It has a great archive with a lot of country tabs.
Rockin Tabs
Are you looking for a site that has rock guitar tabs? Then Rockintabs.com is the place for you. It is a budding site with many rock guitar tabs. Submit your tab today.
Tab Gallery
Tab Gallery has a compilation of christian, rock, and country tabs all in one place. Come visit us.