Guitar Tabs
song title    band name

Join Us Today!

Don't strum alone...
be a part of the largest online Christian music community. Browse thousands of guitar tabs and chat w/ musicians like yourself.


It's Free!

This tab has been rated a 4.75 out of 5 for accuracy. (4 votes)Sorry, but you must be logged in to rate this tab.
Click here to log-in, or you can click here to register.
(Registration is free)

All songs owned by corresponding publishing company. If you make copies of any song on this website, be sure to report your usage to CCLI.
Submitted by: PoeticDisciple

Great Album, Awesome Songs, Great God Anointed Worship Team.
I Also have all the other new songs. Will post ASAP.

Standard Tuning
- mean 4 beats

Intro:
A - - - -

Verse:
A - - - -
F#m - D - A - -
A - - - -
F#m - D - A - -

Pre-Chorus:
E - F#m - D - -
E - F#m - D - -

Chorus:
A - - F#m - -
D - - A - -
A - - F#m - -
D - - A - -

Instrumental:
F#m - D - A -

Bridge:(3x)
F#m - - Bm - -
D - - A - E -

(2nd)Pre-Chorus:
E - F#m - D - -
E - F#m - D - -

Outro:
A - - F#m - D -
A

Comments about this tab

the_obvious - 2006-03-27

Great tab!


ibanezjunkie06 - 2006-04-09

does anyone know what the effect is that he is using on his guitar? i know there is delay or maybe echo but is there anything besides that?


Losingstreak123 - 2006-04-10

I just use a delay w/tap effect into it and it sounds pretty close... I don't think there is anything else. Then again I'm not one for delay in the first place. If you read some of the other tabs where they use this effect sometimes they briefly describe how to do the effect. I've notice for myself that it sounds better w/ tap thats just my opinion tho.


mmggppmgp - 2006-04-14

can sum1 pls figure the bass tabs for this song


erick3ya - 2006-04-15

I think they used delays and reverbs for this and for better sounding try to use Gretsch to copy the real sound of their guitars


krndanxd - 2006-04-22

the bass tab is
G------2-4---
D--4-4-------
A------------
E------------
4x
G------2-4----------
D--------------2-4--
A--2-2-----2-2------
E-------------------
2x
(repeat couple times)


heyimchase - 2006-05-01

There's one part that the bass tabber forgot.

G------2h4
D---4-4---
A---------
E--------- x4

G------2h4---------------2h4-------
D---------------2h4-------------222 <----that last part is the correction
A---2-2------2-2------2-2------2---
E----------------------------------

h=hammer on


yeeep - 2006-06-12

Your bass tab sounds correct, but due to the sustain and delay sound issues, most people play it this way:

G------------------------------------------------------------
D----7-9----7-9----7-9----7-9----7-9---------7-9-------------
A-9-9----9-9----9-9----9-9-------------7-9---------7-9-------
E-----------------------------7-7---7-7---7-7---7-7----------

G------------------------------------------------------------
D----7-9----7-9----7-9----7-9----7-9---------7-9-------------
A-9-9----9-9----9-9----9-9-------------7-9---------7-9-------
E-----------------------------7-7---7-7---7-7---7-7----------

(lyrics enter now)
*
G------------------------------------------------------------
D----7-9----7-9----7-9----7-9----7-9---------7-9-------------
A-9-9----9-9----9-9----9-9-------------7-9---------7-9-------
E-----------------------------7-7---7-7---7-7---7-7----------

G----------------------------------------------------------------------
D-----7-9------------------7-9-----------------------------------------
A-5-5-----5-5--7-------5-5------5-5---7-----------------7-7-7-7-7-7-7-7
E---------------------------------------5-5-5-5-5-5-5-5----------------*
(repeat from 1st * to 2nd *)
If any corrections please correct me. but i am 99.99% sure that this tab is accurate to the dot.
God Bless.


Sambo82rk - 2007-03-23

hey if any body needs fully correct hillsong united tabs send me an email because i play for united in sydney and i have all the correct stuff even the new songs i lead worship every friday night


Add a comment/correction

Complimentary Christian Ringtones
Dadamobile and CGR have teamed up to bring your favorite Christian artists right to your phone. Sign up today and get 10 complementary ringtones!
Tab Country
Did you know CGR has a sister site w/ country guitar tabs? Well we do! Its called Tab Country. It has a great archive with a lot of country tabs.
Rockin Tabs
Are you looking for a site that has rock guitar tabs? Then Rockintabs.com is the place for you. It is a budding site with many rock guitar tabs. Submit your tab today.
Tab Gallery
Tab Gallery has a compilation of christian, rock, and country tabs all in one place. Come visit us.