Guitar Tabs
song title    band name

Join Us Today!

Don't strum alone...
be a part of the largest online Christian music community. Browse thousands of guitar tabs and chat w/ musicians like yourself.


It's Free!

This tab has not yet been rated for accuracy.Sorry, but you must be logged in to rate this tab.
Click here to log-in, or you can click here to register.
(Registration is free)

All songs owned by corresponding publishing company. If you make copies of any song on this website, be sure to report your usage to CCLI.
Submitted by: feyser

I am submitting a song for a new artist named Aaron Shust.  This song is #1
on the Christian Billboard right now so I imagine he'll have more music coming
and is a worthy candidate to add to your web site. Thanks!
***************************************************************************



Artist: Aaron Shust
Song: My Savior My God
Album: Anything Worth Saying

Tabbed By: Marcus Fey

Standard EADGBE Tuning
Chords Used
Bm      x24432
G       320033
D       xx0232
A       x02220
Dsus2   xx023x
Dsus2/B x2x23x
Asus    x02330

Intro
e|-2-2-2-2p0-0-0-------------------------|
B|-3-3-3-3-----3-3----3---3-33---3-3----|
G|-----------------2--2---2-22---2-2----|
D|------------------0--------0--------0--|
A|---------------------------------------|
E|---------------------------------------|

e|-2-2-2-2p0-0-0------------------------|
B|-3-3-3-3------3----3---3-33---3-3----|
G|----------------2--2---2-22---2-2----|
D|--------------------------------------|
A|-----------------2--------2--------2--|
E|--------------------------------------|

e|-3-3-3-3p2-2-2p0----0---0-0-0---0-0---0-|
B|-3-3-3-3---3-3------3---3-33---3-3---3-|
G|-----------------2--2---2-22---2-2---2-|
D|--------------------2---2-2-2---2-2---2-|
A|------------------0--------0--------0---|
E|----------------------------------------|

e|-2-2-0-0-----------------|
B|-3-3-3-3-3-3---3---3-3--|
G|---------------2---2-2--|
D|-------------0---------0-|
A|-------------------------|
E|-------------------------|

Verse (1st Half) - You may or may not want to play the e on the 5th fret
during this part.
e|---5---5-5-5---5-5---5---5-5---5---5-5-|
B|---3---3-33---3-3---3---3-3---3---3-3-|
G|---2---2-22---2-2---2---2-2---2---2-2-|
D|-0--------0--------0---------0---------|
A|---------------------------------------|
E|---------------------------------------|

e|---5---55-5---5-5---5---5-5---5---5-5-|
B|---3---3-33---3-3---3---3-3---3---3-3-|
G|---4---4-44---4-4---4---4-4---4---4-4-|
D|---------------------------------------|
A|-2--------2--------2---------2---------|
E|---------------------------------------|

e|---5---5-5-5---5-5---5---5-5---5---5-5-|
B|---3---3-33---3-3---3---3-3---3---3-3-|
G|---2---2-22---2-2---2---2-2---2---2-2-|
D|---------------------------------------|
A|-0--------0--------0---------0---------|
E|---------------------------------------|

e|---5---5-5-5---5-5-5-|
B|---3---3-33---3-3-3-|
G|---2---2-22---2-2-2-|
D|-0--------0--------0-|
A|---------------------|
E|---------------------|




Verse (2nd Half - this is where the drums and electric guitar come in.)
e|---x----x----0----x---------3----2---0---2-|
B|---3----3----3----3---------3----3---3---3-|
G|---2----2----2----2---------2----2---2---2-|
D|---0----x----2----0---------0----0---2---0-|
A|---x----2----0----x---------x----x---0---x-|
E|---x----x----x----x---------x----x---x---x-|


Chorus 1 (repeat)
Bm  G  D  A
Bm  G  D  A

Verse 2
Dsus2  Dsus2/B  Asus  D
G  D  A  D

Chorus 1 (repeat)
Bm  G  D  A
Bm  G  D  A

Bridge
e|-2-2-2-2p0-0-0-------------------------|
B|-3-3-3-3-----3-3----3---3-33---3-3----|
G|-----------------2--2---2-22---2-2----|
D|------------------0--------0--------0--|
A|---------------------------------------|
E|---------------------------------------|

e|-2-2-2-2p0-0-0------------------------|
B|-3-3-3-3------3----3---3-33---3-3----|
G|----------------2--2---2-22---2-2----|
D|--------------------------------------|
A|-----------------2--------2--------2--|
E|--------------------------------------|

e|-3-3-3-3p2-2-2p0----0---0-0-0---0-0---0-|
B|-3-3-3-3---3-3------3---3-33---3-3---3-|
G|-----------------2--2---2-22---2-2---2-|
D|--------------------2---2-2-2---2-2---2-|
A|------------------0--------0--------0---|
E|----------------------------------------|

e|-2-2-0-0-----------------|
B|-3-3-3-3-3-3---3---3-33-|
G|---------------2---2-22-|
D|-------------0---------0-|
A|-------------------------|
E|-------------------------|

Chorus 2
Bm  G  D  A
Bm  G  D  A
Bm  A  G  A

Bm  G  D  A
Bm  G  D  A
Bm  A  G  A
G

Comments about this tab

No comments/corrections found. Add your own

Complimentary Christian Ringtones
Dadamobile and CGR have teamed up to bring your favorite Christian artists right to your phone. Sign up today and get 10 complementary ringtones!
Tab Country
Did you know CGR has a sister site w/ country guitar tabs? Well we do! Its called Tab Country. It has a great archive with a lot of country tabs.
Rockin Tabs
Are you looking for a site that has rock guitar tabs? Then Rockintabs.com is the place for you. It is a budding site with many rock guitar tabs. Submit your tab today.
Tab Gallery
Tab Gallery has a compilation of christian, rock, and country tabs all in one place. Come visit us.