Guitar Tabs
song title    band name

Join Us Today!

Don't strum alone...
be a part of the largest online Christian music community. Browse thousands of guitar tabs and chat w/ musicians like yourself.


It's Free!

This tab has been rated a 4.00 out of 5 for accuracy. (3 votes)Sorry, but you must be logged in to rate this tab.
Click here to log-in, or you can click here to register.
(Registration is free)

All songs owned by corresponding publishing company. If you make copies of any song on this website, be sure to report your usage to CCLI.
Submitted by: Sauleth

Song: Take It All
Artist: Hillsong United 
Album: United We Stand
Standard Tuning

INTRO/VERSE RIFF A (lead) (quick delay)
e----------------------------------14---14---14-s-----
B---14-14-14--12-12-12--11-11-11----11---11---------
G-----------------------------------------------------
D-----------------------------------------------------
A-----------------------------------------------------
E-----------------------------------------------------

INTRO/VERSE RIFF B (lead) (quick delay)
e----------------------------------(12)---(12)---(12)---
B---14-14-14--12-12-12--11-11-11-----11----11-------
G-----------------------------------------------------
D-----------------------------------------------------
A-----------------------------------------------------
E-----------------------------------------------------

INTRO/VERSE RIFF C (lead) (quick delay)
e-----------------------------------(12)-(12)-(12)-(12)--(12)--
B---14-14-14--12-12-12--11-11-11--(12)-(12)-(12)-(12)--(12)---
G-----------------------------------------------------------
D-----------------------------------------------------------
A-----------------------------------------------------------
E-----------------------------------------------------------

CHORUS:
B              F#              G#m              E   
B              F#              C#m (stabs)   C#m (stabs)

PRE-BRIDGE:
e--------------------------------------
B--------------------------------------
G--4-4-4-4-6-6-6-6-8-8-8-8-9-9-9-9---
D--------------------------------------
A--2-2-2-2-4-4-4-4-6-6-6-6-7-7-7-7---
E--------------------------------------

BRIDGE:
----------------------
----------------------
---6-6----------------
---6-6-6-6-4-4-2-2---             X3
---4-4-6-6-4-4-2-2---
-------4-4-2-2-0-0---

------------------------
------------------------
---4-4-4-4-4-4-4-4-----
---4-4-4-4-4-4-4-4-----
---2-2-2-2-2-2-2-2-----
------------------------

Comments about this tab

OnewayDavid - 2006-03-25

What do you mean by riff A, B and C. Great Tab otherwise.


Sauleth - 2006-03-28

Um, he plays those riffs like at diff times, doesnt really matter that much cs all sound pretty similar but usually plays riff A every first then B and keeps doing that then like does the C one before chorus etc. Doesnt really matter that much, you just play with it.

Peace


Anberlin_Rocks - 2006-03-30

can sum1 tab out da chords


peavey_ax - 2006-06-15

Nice tab


Add a comment/correction

Complimentary Christian Ringtones
Dadamobile and CGR have teamed up to bring your favorite Christian artists right to your phone. Sign up today and get 10 complementary ringtones!
Tab Country
Did you know CGR has a sister site w/ country guitar tabs? Well we do! Its called Tab Country. It has a great archive with a lot of country tabs.
Rockin Tabs
Are you looking for a site that has rock guitar tabs? Then Rockintabs.com is the place for you. It is a budding site with many rock guitar tabs. Submit your tab today.
Tab Gallery
Tab Gallery has a compilation of christian, rock, and country tabs all in one place. Come visit us.