Guitar Tabs
song title    band name

Join Us Today!

Don't strum alone...
be a part of the largest online Christian music community. Browse thousands of guitar tabs and chat w/ musicians like yourself.


It's Free!

This tab has been rated a 5.00 out of 5 for accuracy. (4 votes)Sorry, but you must be logged in to rate this tab.
Click here to log-in, or you can click here to register.
(Registration is free)

All songs owned by corresponding publishing company. If you make copies of any song on this website, be sure to report your usage to CCLI.
Submitted by: akaukal

Song:Head Over Heels
Band:Kids in the Way
Copyright:2005 Flicker Records

I have decided to tab this song because not only was it a great song when 
"Tears for Fears" did it, this is an amazing remake and no one tabbed it yet.
So here it is:

Intro: Lead Guitar

e-----------------------------------
b--7-6-4---4---7-6-4---4------------x4
g--------6---4-------6---4----------
D-----------------------------------
A-----------------------------------
D-----------------------------------

Intro: Rhythm Guitar

e-----------------------------------
b-----------------------------------x2
g--4--------------6-----------------
D--4--hold-until--6-----------------
A--2--------------4-----------------
D-----------------------------------

Intro: Only 1 Guitar.

e------------------------------------
b------------------------------------x8
g------------------------------------
D------------------------------------
A--6-6-6-6-6-6-6-6-8-8-8-8-8-8-8-8---
D--6-6-6-6-6-6-6-6-8-8-8-8-8-8-8-8---
pm . . . . . . . . . . . . . . . .

Chrous: Rhythm Guitar

e----------------------------------
b----------------------------------x3
g----------------------------------
D--4-4-4-4--1-1-1-1----------------
A--4-4-4-4--1-1-1-1----------------
D--4-4-4-4--1-1-1-1----------------

Chrous: Lead Guitar. Only play this on the second and third part of the chorus

e------------------------------------
b--9-7-6-7-6-7-6---------------------
g----------------8-------------------
D------------------------------------
A------------------------------------
D------------------------------------

Interlude: Rhythm Guitar (starts at "Don't take my heart...)

e------------------------------------
b------------------------------------
g------------------------------------
D--9999999999999999------------------
A--9999999999999999------------------
D--9999999999999999------------------

The he starts in on the verse, but as he starts in, the lead plays this:
(b= full bend)
e--------7--------------7---------------------------
b--9-7-------11-9-9-7-------11-9-999999-9-----999999
g------8---8----------8---8------777777-7-11b-777777
D---------------------------------------------------
A---------------------------------------------------
D---------------------------------------------------

then play the verse again. after the verse and chorus the lead plays:

e------------------------------------------
b--12-11-9----9---12-11-9----9-------------
g----------11---8---------11---8-----------
D------------------------------------------
A------------------------------------------
D------------------------------------------

play that for however many times needed.
the bridge is simple. just keep alternating between B and C# power chords.

well thats that i guess. its pretty accurate i think. fairly easy too.

Comments about this tab

akaukal - 2006-03-23

sorry i said Intro when it should have said verse


akaukal - 2006-03-28

please rate and comment on this tab!


akaukal - 2006-04-03

okay, quite a few people have viewed this tab but only one person has rated it and no one has commented except me. RATE AND COMMENT ON THIS TAB!!!


Dani_Boy - 2006-05-04

Yeah, I know how it feels when nobody says anything. I haven't heard this song, sorry. If I had then you know you could count on me.

Please, everyone, comment more! :)


xDisconnektiex - 2006-05-04

Well... i just got the tab so i dont know how it is yet but when i get done playing it i will tell you! lol ok! buhbyes<333


akaukal - 2006-05-05

I think this tab didn't deserve a 5. I have no clue who gave it to me. I have noticed a few mistakes, and I left out a little guitar in the verse, so I'll try and post the corrections soon.


ice_wiz - 2006-05-06

I'll rate this song once I've played it. It's probably my least favorite song on the AOM but I'll try it.


zero91 - 2006-05-08

here akaukal,i'll rate it. i think its perfect! good job! i'm so glad somebody finaly tabbed it! i wish more people would tab there songs. anyway i gave it a five.


zero91 - 2006-05-09

oh yeah, i just remembered the other guitar you left out in the verse and theres something missing in the solo during the verse after the interlude part. but other then that its seems perfect.


akaukal - 2006-05-09

yes, I'll try to post the second guitar in the verse soon.


Add a comment/correction

Complimentary Christian Ringtones
Dadamobile and CGR have teamed up to bring your favorite Christian artists right to your phone. Sign up today and get 10 complementary ringtones!
Tab Country
Did you know CGR has a sister site w/ country guitar tabs? Well we do! Its called Tab Country. It has a great archive with a lot of country tabs.
Rockin Tabs
Are you looking for a site that has rock guitar tabs? Then Rockintabs.com is the place for you. It is a budding site with many rock guitar tabs. Submit your tab today.
Tab Gallery
Tab Gallery has a compilation of christian, rock, and country tabs all in one place. Come visit us.