Guitar Tabs
song title    band name

Join Us Today!

Don't strum alone...
be a part of the largest online Christian music community. Browse thousands of guitar tabs and chat w/ musicians like yourself.


It's Free!

This tab has been rated a 3.00 out of 5 for accuracy. (2 votes)Sorry, but you must be logged in to rate this tab.
Click here to log-in, or you can click here to register.
(Registration is free)

All songs owned by corresponding publishing company. If you make copies of any song on this website, be sure to report your usage to CCLI.
Submitted by: matix1993

Alright, i looked at this one version of it on here
and it didnt sound right, so im correcting the whole song

tuning- drop D

~means let ring

intro1: cant figure it out

intro2
e-------------4~~---4~~------
b-------------4~~---4~~------
g-------------4~~---4~~------
d0~~6-6-6~~0~~4~~0~~4~~-3----
a0~~6-6-6~~0~~---0~~----3----
D0~~6-6-6~~0~~---0~~----3----

intro3 and verse1(x5):

e-------------------------------------------------------
b-------------------------------------------------------
g-------------------------------------------------------
d0-0-6-0-0-6-0-0-3~0-2~0-3-2-0-0-6-0-0-6-0-0-3~0-2~0-3-5
a0-0-6-0-0-6-0-0-3~0-2~0-3-2-0-0-6-0-0-6-0-0-3~0-2~0-3-5
D0-0-6-0-0-6-0-0-3~0-2~0-3-2-0-0-6-0-0-6-0-0-3~0-2~0-3-5

pre-chorus:
e--------------------------------------------------------
b--------------------------------------------------------
g--------------------------------------------------------
d0--2-2--3-3--6--5-5~~6666-0--2-2--3-3--6--5-5~~66666h777
a0--2-2--3-3--6--5-5~~-----0--2-2--3-3--6--5-5~~---------
D0--2-2--3-3--6--5-5~~-----0--2-2--3-3--6--5-5~~---------
chorus(x8):
e--------------------------------
b--------------------------------
g------14-14-14-12-12-12-12-12-12   after 4th time: d1~/10
d0-0-0-12-12-12-12-12-12-10-10-12                   a1~/10
a0-0-0---------------------------                   D1~/10
D0-0-0--------------------------- 
                                   after 8th time:e---4~~
                                                  b---4~~
                                                  g---4~~   x2
                                                  d0~~4~~
                                                  a0~~
                                                  D0~~

pickscrape

verse2: same as 1

prechorus

chorus: same as 1(do the "after 4th time" but not the "after 8th time")

bridge(x4)

d0~~-----6-----3-----8-8/10-10
a0~~-5h6-6-5h6-3-5h6-8-8/10-10
D0~~-----6-----3-----8-8/10-10

then

d 6666666


prechorus


chrorus(keep the after 4th time in and leave after 8th time out)

then finally

d0-0-0-----3~~~~~~
a0-0-0-----3~~~~~~
D0-0-0-----3~~~~~~


well, thats it after all that hard work, hope you enjoy it



Comments about this tab

matix1993 - 2006-03-25

comments please?


12ptrsfldSTONES - 2006-04-20

I'm sorry, but to me, this doesn't really sound right at all :-\ Nice try though


sXcountry - 2006-06-12

some parts are ok, but it's mostly off...

nice try...


Add a comment/correction

Complimentary Christian Ringtones
Dadamobile and CGR have teamed up to bring your favorite Christian artists right to your phone. Sign up today and get 10 complementary ringtones!
Tab Country
Did you know CGR has a sister site w/ country guitar tabs? Well we do! Its called Tab Country. It has a great archive with a lot of country tabs.
Rockin Tabs
Are you looking for a site that has rock guitar tabs? Then Rockintabs.com is the place for you. It is a budding site with many rock guitar tabs. Submit your tab today.
Tab Gallery
Tab Gallery has a compilation of christian, rock, and country tabs all in one place. Come visit us.