Guitar Tabs
song title    band name

Join Us Today!

Don't strum alone...
be a part of the largest online Christian music community. Browse thousands of guitar tabs and chat w/ musicians like yourself.


It's Free!

This tab has been rated a 3.67 out of 5 for accuracy. (3 votes)Sorry, but you must be logged in to rate this tab.
Click here to log-in, or you can click here to register.
(Registration is free)

All songs owned by corresponding publishing company. If you make copies of any song on this website, be sure to report your usage to CCLI.
Submitted by: RockinfotheRock

Relient K
Gotee Records
Written by Matt Theisen
Be My Escape

Tuned Normaly

The other Be My Escape Tabs were either missing some stuff or werent exactly 
right. So here it goes. 
Despite what you think about the video there are only 2 real guitar parts. Matt
plays the piano live.

opening:
gtr 1

e--9--9--9--9--9--
B-10--9-10--9--9--    (x4)
G-11-11-11-11--9--    It helps to bar the whole fretboard with your first finger
D-11-11-11-11-11--    on the 9th fret so all you have to do is lift up your
A--9--9--9--9--9--    fingers when changing.
E-----------------

gtr 2 (comes in after guitar 1 plays its part one time)

e-----------
B-----------
G--7-----7--
D--7--4--7--
A--5--4--5--
E-----2-----


gtr 1

e--9-9--9-9--9-9--9-9      e--9 9 9 9 9 9 9 9
B-1010--9-9-1010--9-9      B-10101010 9 9 9 9
G-1111-1111-1111-11-9 (x2) G-111111111111 9 9
D-1111-1111-1111-1111      D-111111111111 9 9
A--9-9--9-9--9-9--9-9      A--9 9 9 9 9 9 9 9
E--------------------      E-----------------

gtr 2

e------------------------
B------------------------
G--77----7777-77----77---
D--77-44-7777-77-44-77-44
A--55-44-5555-55-44-55-44
E-----22---------22----22

Verse 1

gtr 1

e----------------------
B----------------------
G--------7---11--9---67   (x2)
D--7--9--7---11--9--767   Strum it the first time to make up for the 
A--7--9--5----9--7--745   loss of piano.
E--5--7-------------5--

gtr 2 (isnt really played in the song at this part but it sounds cool anyways)

e--5--7--10--14--12--5-7-10  (x2)

Pre-Chorus

e------------------------
B------------------------
G--11-11--7-77-------9-99   (x3)
D--11-11--7-77--7-7--9-99
A---9--9--5-55--7-7--7-77
E---------------5-5------

Thingy in between

e-------------------
B-------------------
G-----------7-7--9-9
D--9-9-9-9--7-7--9-9
A--9-9-9-9--5-5--7-7
E--7-7-7-7----------

Chorus

e-------         e----------
B-------         B----------
G----9-7         G--11-9-7-9
D--7-9-7    (x3) D--11-9-7-9   (Strum)
A--7-7-7         A---9-7-5-7
E--5----         E----------

Verse 2

Gtr 1

e----------------------------
B----------------------------
G------------------11--9---67   (x2)
D----7---7----7----11--9--767
A-----------77------9--7--745
E--55--77-----------------5--

Gtr 2

e----------------------------
B----------------------------
G----------777-----11--9---67
D--777-999-777-----11--9--767   (x2)
A--777-999-555------9--7--745
E--555-777----------------5--

Pre-Chorus

"solo" for the Pre-Chorus

e--5-4--------------
B------5---5---5----
G--------6---4---4/2
D-------------------  (x3)
A-------------------
E-------------------

Chorus

Bridge

Gtr 1

e--9--9--9--9--9--
B-10--9-10--9--9--    (x2)
G-11-11-11-11--9--
D-11-11-11-11-11--
A--9--9--9--9--9--
E-----------------

Gtr 2

e---
B---
G---
D--4
A--4
E--2

There is no Guitar part for most of the bridge but here is the bass riff 
that still sounds good if you play it on guitar.

Gtr 1

e----------------------------------------
B----------------------------------------
G--------00------------------------------
D------0-44-00-00000000-00000000--------- (x2)
A--000-4----44-55555555-00000000-00000000
E--222---------------------------77777777

Gtr 1

e--9 9 9 9 9 9 9 9        
B-10101010 9 9 9 9         
G-111111111111 9 9   (x2) 
D-111111111111 9 9        
A--9 9 9 9 9 9 9 9        
E-----------------        


e--9-9--9-9--9-9-9-9
B-1010-1010--9-9-9-9
G-1111-1111-1111-9-9
D-1111-1111-11111111 (x2)
A--9-9--9-9--9-9-9-9
E-------------------

e--9 9 9 9 9 9 9 9        
B-10101010 9 9 9 9         
G-111111111111 9 9
D-111111111111 9 9        
A--9 9 9 9 9 9 9 9        
E-----------------        

Pre-Chorus

In between thingy (palm muted)

Chorus

Then end on this note

e---
B---
G---
D--7
A--7
E--5

Hope that this one makes more sense. Enjoy. This is a very good song.

God Bless,
Kenton Wallis

If you have any questions or comments you can e-mail me at Kenton@hijklm.org or 
visit my Myspace which is www.myspace.com/thekent.

Comments about this tab

RockinfotheRock - 2006-06-15

dude... whoever ediited this messed my tab up.

here is the opening:

e---9--9--9--9--9
B--10--9-10--9--9
G--11-11-11-11--9
D--11-11-11-11-11 x4
A---9--9--9--9--9
E---9--9--9--9--9


RockinfotheRock - 2006-06-15

just kidding... i read it wrong.

but I did screw up on the "solo"

e--5-4----------------
B------5---5---------- x3
G--------6---4-6-4/2--


RockinfotheRock - 2006-06-16

and just one more thing... there is a typo in one of the choruses. it is supposed to be a regular power chord.

chorus
e-----------------
B-----------------
G------9--7--9---- x3
D---7--9--7--9----
A---7--7--5--7----
E---5-------------


Add a comment/correction

Complimentary Christian Ringtones
Dadamobile and CGR have teamed up to bring your favorite Christian artists right to your phone. Sign up today and get 10 complementary ringtones!
Tab Country
Did you know CGR has a sister site w/ country guitar tabs? Well we do! Its called Tab Country. It has a great archive with a lot of country tabs.
Rockin Tabs
Are you looking for a site that has rock guitar tabs? Then Rockintabs.com is the place for you. It is a budding site with many rock guitar tabs. Submit your tab today.
Tab Gallery
Tab Gallery has a compilation of christian, rock, and country tabs all in one place. Come visit us.