Guitar Tabs
song title    band name

Join Us Today!

Don't strum alone...
be a part of the largest online Christian music community. Browse thousands of guitar tabs and chat w/ musicians like yourself.


It's Free!

This tab has been rated a 5.00 out of 5 for accuracy. (1 vote)Sorry, but you must be logged in to rate this tab.
Click here to log-in, or you can click here to register.
(Registration is free)

All songs owned by corresponding publishing company. If you make copies of any song on this website, be sure to report your usage to CCLI.
Submitted by: Adam K

Emery-Listening To Freddie Mercury
From:The Question
Copyright  2005 Tooth and Nail Records
Drop C# Tuning C#-G#-C#-F#-A#-D#

palm mute=...etc.

Verse 1
Gtr. 1
F#[-5/5------------------------------------------------------]
C#[-7/7-5/5-5/5-9/9-9/9-9/9-2/2-2/2-2/2-2/2-2/2-2/2-2/2-2/2--]
G#[-----7/7-7/7-7/7-7/7-7/7-3/3-3/3-3/3-3/3-3/3-3/3-3/3-3/3--]
Then
Gtr. 1
F#[-5/5------------------------------------------------------]
C#[-7/7-5/5-5/5-9/9-9/9-9/9-2/2-2/2-2/2-2/2-2/2-2/2-2/2-2/2--]x3
G#[-----7/7-7/7-7/7-7/7-7/7-3/3-3/3-3/3-3/3-3/3-3/3-3/3-3/3--]
Gtr. 2
D#[---------------------------0-------]
A#[---------------------------0-------]
F#[---------------------------0-------]
C#[--x2/2/2/2--------x2/2/2/2-2-------]
G#[--x2/2/2/2--------x2/2/2/2-3-------]x3
C#[--x2/2/2/2--------x2/2/2/2---------]
      .......         ....... 
Then
Gtr. 1
F#[-5/5------------------------------------------------------]
C#[-7/7-5/5-5/5-9/9-9/9-9/9-2/2-2/2-2/2-2/2-2/2-2/2-2/2-2/2--]
G#[-----7/7-7/7-7/7-7/7-7/7-3/3-3/3-3/3-3/3-3/3-3/3-3/3-3/3--]
Gtr. 2
D#[---------------------------0--0--0--0--0---0---0---0---0---------]
A#[---------------------------0-3--3----3--3---3---3---3---3--------]
F#[---------------------------0-----------------0---0---0---0-------]
C#[--x2/2/2/2--------x2/2/2/2-2-------------------------------------]
G#[--x2/2/2/2--------x2/2/2/2-3-------------------------------------]
C#[--x2/2/2/2--------x2/2/2/2---------------------------------------]
      .......         ....... 
Then
Gtr. 1
D#[-12-10--12-10--12-10--12-10--12-10--12-10--12-10--12-10--]
Gtr. 2
D#[-0--0--0--0--0---0---0---0---0------]
A#[-0-3--3----3--3---3---3---3---3-----]
F#[-0-----------------0---0---0---0----]
C#[-2----------------------------------]
G#[-3----------------------------------]

Interlude
Gtr. 2
C#[-2-2/2/2/2-2/2/2/2-2/2/2-2-2--]
G#[-2-2/2/2/2-2/2/2/2-2/2/2-2-2--]x4
C#[-2-2/2/2/2-2/2/2/2-2/2/2-2-2--]
    . ....... ....... ..... . . 
Gtr. 1
C#[-2----2----2----2----]
G#[-3----3----2----2----]x2
Then
Gtr. 1
A#[-13-----13-----10----8----8------]
F#[--x---9--x---9--x----x----x-9----]
C#[-10---x-10---x--7----5----5-x----]
G#[------7------7--------------7----]
Gtr. 2
A#[---------------13---12---12------]
F#[--9-----9-------x----x----x------]
C#[--x---5-x---5--10----9----9-5----]
G#[--7---x-7---x---------------x----]
C#[------5-----5---------------5----]
Then
Gtr. 1
A#[-13-----13-----10----8----8---]
F#[--x---9--x---9--x----x----x---]
C#[-10---x-10---x--7----5----5---]
G#[------7------7----------------]
Gtr. 2
A#[---------------13---12---12---]
F#[--9-----9-------x----x----x---]
C#[--x---5-x---5--10----9----9---]
G#[--7---x-7---x-----------------]
C#[------5-----5-----------------]

Interlude 2
From now on in the song there is no guitar just Keyboard Drums and Bass
But they start out with Clean guitar and they play this...
D#[-3----2----3----2----]
A#[-3----3----3----3----]
F#[-4----4----4----4----]
C#[-5----4----5----4----]
G#[-5----2----5----2----]

(From now on is just implied)
F#[-2----2----]
C#[-2----2----]
G#[-0----0----]
Then
F#[------4---------4----2----7----4----9----]
C#[-5----4----5----4----2----7----4----9----]
G#[-5----2----5----2----0----5----2----7----]
C#[-5---------5-----------------------------]
Then
F#[-2----7----4----9----]
C#[-2----7----4----9----]
G#[-0----5----2----7----]
C#[---------------------]
Then
F#[-5----7----9----8----7----6----5--------------]
C#[-5----7----9----9----7----7----5----7----5----]
G#[-3----5----7----6----5----4----3----7----5----]
C#[------------------------------------7----5----]


Tabbed by Adam K

Comments about this tab

Addero - 2006-03-28

Lol, are all your tabs in Drop C#?


Adam K - 2006-03-30

alot of emery's tabs are in Drop C# So Cold I could see my breath is in Drop C


Shaneathin86 - 2006-04-26

whats with all the //'s? they aren't slides... whaddya mean by them?


Adam K - 2006-04-30

I use the /'s to seperate really close notes/chords. like say if I put 22 you wouldn't know if it was the 22nd fret or 2/2.so , yeah.


Rockhisname - 2006-05-25

i dont think the intro is right>?


Rockhisname - 2006-05-25

nvm i was playing it wrong good tab by the way ^_^


ay1138 - 2006-05-31

Adam! you're an amazing tabbing individual. Can i Get an Amen!well if not for Adam then for the truth Emery brings in this song. Honestly we needed this as Christians...to truthfully look at how our example to the world needs to be come the example of Love and no longer of Religion.any way.. Adam you rock yet again! Never met ya but already Love ya. Have fun yo.


Adam K - 2006-12-22

Thanx, man


Add a comment/correction

Complimentary Christian Ringtones
Dadamobile and CGR have teamed up to bring your favorite Christian artists right to your phone. Sign up today and get 10 complementary ringtones!
Tab Country
Did you know CGR has a sister site w/ country guitar tabs? Well we do! Its called Tab Country. It has a great archive with a lot of country tabs.
Rockin Tabs
Are you looking for a site that has rock guitar tabs? Then Rockintabs.com is the place for you. It is a budding site with many rock guitar tabs. Submit your tab today.
Tab Gallery
Tab Gallery has a compilation of christian, rock, and country tabs all in one place. Come visit us.