Guitar Tabs
song title    band name

Join Us Today!

Don't strum alone...
be a part of the largest online Christian music community. Browse thousands of guitar tabs and chat w/ musicians like yourself.


It's Free!

This tab has not yet been rated for accuracy.Sorry, but you must be logged in to rate this tab.
Click here to log-in, or you can click here to register.
(Registration is free)

All songs owned by corresponding publishing company. If you make copies of any song on this website, be sure to report your usage to CCLI.
Submitted by: dev2003

e-------x--------x--------x--------x--------x--------x--------x--------x--------
B-----3-x--3---3-x--3---3-x--3---3-x--3---3-x--3---3-x--3---3-x--3---3-x-30-----
G-----0-x--0---0-x--0---0-x--0---0-x--0---0-x--0---0-x--0---0-x--0---0-x-0------
D-----2-x--2---2-x--2---0-x--0---0-x--0---0-x--0---0-x--0---0-x--0---0-x-0h2***-
A---0---x--0-0---x--0-2---x--2-2---x--2-3---x--3-3---x--3-----x--------x-------0
E-------x--------x--------x--------x--------x--------x----3---x--3-2---x--------

***after this hammer it starts back at the beginning again and just keeps repeating

I'm not sure on the second guitar but it has something to do with 1p0 on the B string
and the when it gets to the bridge part i just play around with something like

e-------------------------------------------------------------------------------
B-----3----3----3----3----3-----------------------------------------------------
G----0----0----0----0----0------repeat as many times as needed------------------
D---2----0----0----0----0-------------------------------------------------------
A--0----2----3------------------------------------------------------------------
E-----------------3----2--------------------------------------------------------
  \           /   |    |
  these 3 pause   |    |
 after each pluck |    |   
 of the B string  |    |
                  \    /
            these two play quick
         with the 2 on the E string
        coming immediately after the 3
       on the B string right before it 

hopefully this wasnt too confusing but this sounds pretty good to me...please leave
comments and corrections, and also comment with the second guitar or correct bridge
if it is know.

Comments about this tab

No comments/corrections found. Add your own

Complimentary Christian Ringtones
Dadamobile and CGR have teamed up to bring your favorite Christian artists right to your phone. Sign up today and get 10 complementary ringtones!
Tab Country
Did you know CGR has a sister site w/ country guitar tabs? Well we do! Its called Tab Country. It has a great archive with a lot of country tabs.
Rockin Tabs
Are you looking for a site that has rock guitar tabs? Then Rockintabs.com is the place for you. It is a budding site with many rock guitar tabs. Submit your tab today.
Tab Gallery
Tab Gallery has a compilation of christian, rock, and country tabs all in one place. Come visit us.