Guitar Tabs
song title    band name

Join Us Today!

Don't strum alone...
be a part of the largest online Christian music community. Browse thousands of guitar tabs and chat w/ musicians like yourself.


It's Free!

This tab has been rated a 4.00 out of 5 for accuracy. (4 votes)Sorry, but you must be logged in to rate this tab.
Click here to log-in, or you can click here to register.
(Registration is free)

All songs owned by corresponding publishing company. If you make copies of any song on this website, be sure to report your usage to CCLI.
Submitted by: Adam K

Emery-Left With Alibis and Lying Eyes
From:The Question
Copyright  2005 Tooth and Nail Records
Drop C# Tuning C#-G#-C#-F#-A#-D#

palm mute=...etc.
h=hammer on
b=bend
p=pull off

Intro
C#[----3-0---3-0---3-0---3-0---3-0---3-0---3-0---3-0-]
G#[--0-----0-----0-----0-----5-----5-----5-----5-----]x2
C#[-0-0---0-0---0-0---0-0---5-5---5-5---5-5---5-5----]

Verse 1
C#[----3-0---3-0---3-0---3-0---3-0---3-0---3-0---3-0-]
G#[--0-----0-----0-----0-----5-----5-----5-----5-----]x4
C#[-0-0---0-0---0-0---0-0---5-5---5-5---5-5---5-5----]

Pre-Chorus
C#[---------10-10-5--5--]
G#[--0--8-8-12-12-8--8--]
C#[-0-0-0-0-10-10-5-----]

Chorus
Gtr. 2
C#[-0/3/0/0-0/0/3/0/0xxxx-3x3h5-5-5/5-5/5/3/0-]
G#[-0/3/0/0-0/0/3/0/0xxxx-3x3h5-5-5/5-5/5/3/0-]x2
C#[-0/3/0/0-0/0/3/0/0xxxx-3x3h5-5-5/5-5/5/3/0-]
            .........
Gtr. 1
F#[-7/10/7/7-xx10/7/7/10--12/12/12/12/12/12/12/12/12/12/12/12/12/12bb-]
C#[-x/-x/x/x-xx-x/x/x/-x---x/-x/-x/-x/-x/-x/-x/-x/-x/-x/-x/-x/-x/-xbb-]x2
G#[-5/-8/5/5-xx-8/5/5/-8--10/10/10/10/10/10/10/10/10/10/10/10/10/10bb-]

Post-Chorus
Gtr. 2
C#[-0----5----]
G#[-0----5----]
C#[-0----5----]
Gtr. 1
A#[-5-----5--5h6/6----5---------------]
F#[---5----5------------5-------------]
C#[------------------------5x5/3/5p3--]

Verse 2
Gtr. 2
C#[-0----5----]
G#[-0----5----]x2
C#[-0----5----]
   ...........
Gtr. 1
C#[---3--3---3--3----3--3---3--3-]
G#[--0--0---0--0----5--5---5--5--]x2
C#[-0--0---0--0----5--5---5--5---]
Then
C#[--8-8--8-8-10----3-3-5-7-3-3-2-2--8-8-10-10-10--2--]
G#[-10-8-10-8-13----7-3-3-3-0-0-0-0-12-8--8--8-10--3--]
C#[--8-8--8-8-10----3-3-3-3-0-0-0-0--8-8--8--8-10-----]

Chorus

Bridge
C#[-0----------]
G#[-0----------]
C#[-0----------]
   ............
Then
C#[-8/8----7/7----8/8----7/7--7/10/10/10--]
G#[-8/8----7/7----8/8----7/7--7/10/10/10--]
C#[-8/8----7/7----8/8----7/7--7/10/10/10--]
Then
F#[-----------6b-----------5b-----------5b-----------5b----]
A#[-----------7b-----------7b-----------6b-----------6b----]
C#[-0/0/0/0/0----0/0/0/0/0----0/0/0/0/0----0/0/0/0/0-------]
G#[-0/0/0/0/0----0/0/0/0/0----0/0/0/0/0----0/0/0/0/0-------]x2
C#[-0/0/0/0/0----0/0/0/0/0----0/0/0/0/0----0/0/0/0/0-------]
    .........    .........    .........    .........

Pre-Chorus 2
D#[---------------------------0-]
A#[-----------------------------]
F#[--------------------0-0-0----]
C#[---------10-10-5--5----------]
G#[--0--8-8-12-12-8--8----------]
C#[-0-0-0-0-10-10-5-------------]

Chorus



Tabbed by Adam K

Comments about this tab

Addero - 2006-03-20

That's good, I've been waiting for that a long time, and I was just starting to try to tab it out myself, even though I've never tabbed anything before. Ever. Seriously.
Anyways, I don't think it's right, though.
I'm working on mine right now, but if I can manage to finish it, I'll post it up so we can compare. But knowing me, I'm probably wrong.
So great shot at the best Emery song! Friggin' wicked!


TG-da-JF - 2006-03-21

finally, the long aclaimed tab! :D thx mate. 5/5


Addero - 2006-03-27

Well, I just finished my version of the song a few days ago...
So now I'm just waiting to see if they take it. It's all in standard, and I gave it to my friend, and he said it was all good. (Except for the Intro, which he tried to fix a couple times before getting it)
So hopefully that'll be up soon, and you can try mine. (Oh, and just to btw, I just re-tuned my guitar, and your tab actually sounds really good!.. Sorry 'bout that!)
Soo.. uh... yeah..
Y'all take care, now.
Love and Kisses;
Jeremy


Add a comment/correction

Complimentary Christian Ringtones
Dadamobile and CGR have teamed up to bring your favorite Christian artists right to your phone. Sign up today and get 10 complementary ringtones!
Tab Country
Did you know CGR has a sister site w/ country guitar tabs? Well we do! Its called Tab Country. It has a great archive with a lot of country tabs.
Rockin Tabs
Are you looking for a site that has rock guitar tabs? Then Rockintabs.com is the place for you. It is a budding site with many rock guitar tabs. Submit your tab today.
Tab Gallery
Tab Gallery has a compilation of christian, rock, and country tabs all in one place. Come visit us.