Guitar Tabs
song title    band name

Join Us Today!

Don't strum alone...
be a part of the largest online Christian music community. Browse thousands of guitar tabs and chat w/ musicians like yourself.


It's Free!

This tab has been rated a 0.00 out of 5 for accuracy. (1 vote)Sorry, but you must be logged in to rate this tab.
Click here to log-in, or you can click here to register.
(Registration is free)

All songs owned by corresponding publishing company. If you make copies of any song on this website, be sure to report your usage to CCLI.
                              GIVING ME REASONS
                                 by In Reach
                            on the "Waterline" CD
                     Tabbed by : Tim Berg (tberg@uakron.edu)


Chords : 
                Bm      x24432
                D       xx0232
                D2      xx0230
                D2/F#   2x0230
                E/G#    4x245x
                Em      022000
                G       320033
                Asus4   x02230
                A       x02220
                A/C#    x4222x

Tablature explanation :
  b - Bend
  p - Pulloff
  h - Hammer-on
  \ - Slide down


Intro progression:
        D   |    A   |    Bm   |   G   (Play 4 times)


Verse 1:
D      A      Bm     G
D      A
Bm     G
D      A
Bm     G 
D      A
Bm     G

Chorus :
D2     D2/F#  G      Asus4  A
D      D2/F#  G      Asus4  A


Verse 2 :
(same chords as verse 1)


Repeat Chorus


Bridge :
Bm     Em
D      Asus4  A
Bm     E/G#   A      A/C#


Lead :
                                                        (*)
e|------------------------------17-------|-------------------15------|
B|--15b17-15b17--15p14----14-15----15b17-|-15p14-17b19-17b19----17b19|
G|---------------------16----------------|---------------------------|
D|---------------------------------------|---------------------------|
A|---------------------------------------|---------------------------|
E|---------------------------------------|---------------------------|


e|------------------------------------|------------------------------|
B|-17b19--17p15-17--15h17p15-14-------|-14b15-14-12----------14b15-14|
G|------------------------------16-14-|-------------14---------------|
D|------------------------------------|----------------14\12---------|
A|------------------------------------|------------------------------|
E|------------------------------------|------------------------------|


e|----|-15b17-15b17-15-14-12--15p14-12-------------------------------|
B|-12-|--------------------------------15p14-12----------------------|
G|----|-----------------------------------------14p12-11-------------|
D|----|--------------------------------------------------14p12-11----|
A|----|--------------------------------------------------------------|
E|----|--------------------------------------------------------------|


e|--------------------|
B|--------------------|
G|--------------------|
D|--------------------|
A|-14p12-10-----------|
E|----------14p12-10--|


Notes :
(*) - Hold bend.
- Also, the lead gets hard to hear near the end of the last scale.  This
is the best that I can figure.

Comments about this tab

No comments/corrections found. Add your own

Complimentary Christian Ringtones
Dadamobile and CGR have teamed up to bring your favorite Christian artists right to your phone. Sign up today and get 10 complementary ringtones!
Tab Country
Did you know CGR has a sister site w/ country guitar tabs? Well we do! Its called Tab Country. It has a great archive with a lot of country tabs.
Rockin Tabs
Are you looking for a site that has rock guitar tabs? Then Rockintabs.com is the place for you. It is a budding site with many rock guitar tabs. Submit your tab today.
Tab Gallery
Tab Gallery has a compilation of christian, rock, and country tabs all in one place. Come visit us.