Guitar Tabs
song title    band name

Join Us Today!

Don't strum alone...
be a part of the largest online Christian music community. Browse thousands of guitar tabs and chat w/ musicians like yourself.


It's Free!

This tab has been rated a 2.00 out of 5 for accuracy. (1 vote)Sorry, but you must be logged in to rate this tab.
Click here to log-in, or you can click here to register.
(Registration is free)

All songs owned by corresponding publishing company. If you make copies of any song on this website, be sure to report your usage to CCLI.
Submitted by: 3rddayinmyear

I Can Feel It
Third Day
Written by Mark Lee
Copyright 2005 Consuming Fire Music(ASCAP)

Capo 1

Verse:
D Dsus repeatedly with muted strum

Chorus:
D F C G

Sorry, I don't have the postchorus tab figured out yet. the chord is just D.

2nd chorus:
D F G C

Bridge:
Bb G D F
Bb G D

Ending:
D
 

Comments about this tab

3rddayinmyear - 2006-03-20

correction:
2nd chorus:
D F C G
D F C D


Third_Day_Rocks - 2006-05-26

Actually I think the song is tuned half a step down.
So it's tuned: Eb Ab Db Gb Bb Eb. The intro and verse tab is:

The guitar has a lot of delay
eb|------------------------------|
Bb|------------------------------|
Gb|------------------------------|
Db|------------------------------|
Ab|---7--7p5----7-----7-7p5----7-|
Eb|-0---------0-----0--------0---|

It is played over and over

The post-chorus tab is:
eb|-------------------------------------------------------|
Bb|-------------------------------------------------------|
Gb|-------------------------------------------------------|
Db|-x-x-x-x-x-x-x-----------5/7-5-------------------------|
Ab|-x-x-x-x-x-x-x-5/7--5--7-------7--5/7--5--7---5/7\5--2-|
Eb|-----------------------------------------------------0-|

Or something close to that.


Third_Day_Rocks - 2006-05-26

I forgot the end of the intro/verse tab.

It is:
eb|-------------------------------------------------------|
Bb|-------------------------------------------------------|
Gb|-------------------------------------------------------|
Db|----------------------------------------------7----6---|
Ab|---7--7p5----7-----7-7p5----7-----7-7p5----------------|
Eb|-0---------0-----0--------0-----0--------0------0----0-|


ChristChild3_13 - 2006-09-01

Actually, this song is tuned a half step down, and theres no capo.


3rddayinmyear - 2007-01-19

yeah what i meant was that it's in the key of Eb...cause D half step up is Eb


Add a comment/correction

Complimentary Christian Ringtones
Dadamobile and CGR have teamed up to bring your favorite Christian artists right to your phone. Sign up today and get 10 complementary ringtones!
Tab Country
Did you know CGR has a sister site w/ country guitar tabs? Well we do! Its called Tab Country. It has a great archive with a lot of country tabs.
Rockin Tabs
Are you looking for a site that has rock guitar tabs? Then Rockintabs.com is the place for you. It is a budding site with many rock guitar tabs. Submit your tab today.
Tab Gallery
Tab Gallery has a compilation of christian, rock, and country tabs all in one place. Come visit us.