Guitar Tabs
song title    band name

Join Us Today!

Don't strum alone...
be a part of the largest online Christian music community. Browse thousands of guitar tabs and chat w/ musicians like yourself.


It's Free!

This tab has been rated a 5.00 out of 5 for accuracy. (2 votes)Sorry, but you must be logged in to rate this tab.
Click here to log-in, or you can click here to register.
(Registration is free)

All songs owned by corresponding publishing company. If you make copies of any song on this website, be sure to report your usage to CCLI.
Submitted by: Adam K

Emery-Playing With Fire
From:The Question
Copyright  2005 Tooth and Nail Records
Drop C# Tuning C#-G#-C#-F#-A#-D#

s=slide
h=hammer on

Intro
Keyboard 
then...
A#[---------12---10----------]
F#[-5---4--------------------]x2
Then
Gtr. 1
A#[---------12---10----------]
F#[-5---4--------------------]x2
Gtr. 2
A#[----------------------------------0--------]
F#[----------------------------------------2--]
C#[-7---5---0---3----7---5---0-----2---2-0-0--]
G#[-7---5---0---3----7---5---0----------------]
C#[-7---5---0---3----7---5---0---3------------]

Verse 1
F#[-5-5-5-5-5-5-5-5-5-5-5-5-5-5-5-5-5-5-5-5-5-5-5-5--]
C#[-7-7-7-7-7-7-7-7-7-7-7-7-7-7-7-7-7-7-7-7-7-7-7-7--]x2
G#[-------------------------5-5-5-5-5-5-5-5-5-5-5-5--]

Chorus
Gtr. 2
A#[-----------------------------------------------------------------0--------]
F#[-----------------------------------------------------------------------2--]
C#[-7---5---0---3---7---5---0---3---7---5---0---3---7---5---0-----2---2-0-0--]
G#[-7---5---0---3---7---5---0---3---7---5---0---3---7---5---0----------------]
C#[-7---5---0---3---7---5---0---3---7---5---0---3---7---5---0---3------------]
Gtr. 1
D#[-12-15--10---8s10/12---------12-15--10s8---5-7/8---5--]
A#[---------------------12-13----------------------------]x2
F#[------------------------------------------------------]

Verse 2
Gtr. 1
A#[--------0------]
F#[---5-------5---]
C#[-----5---------]x4
G#[-0-------------]
Then
Gtr. 2
A#[--------------12---12-----12---12---------]
F#[------------12---12-----12---12-----------]
C#[-0------7--------------------------0------]
G#[-0------7--------------------------0------]
C#[-0------7--------------------------0------]
Gtr. 1
A#[--------0------]
F#[---5-------5---]
C#[-----5---------]x12
G#[-0-------------]
Then
A#[-13s6---13--13/12/10/8-13s6----------]
F#[--xsx----x---x/-x/-x/x--xsx---9--7---]
C#[-10s3---10--10/-9/-7/5-10s3---x--x---]
G#[------------------------------7--5---]

Interlude
Gtr. 2
C#[-7------0------7------0--]
G#[-7------0------7------0--]
C#[-7------0------7------0--]
Gtr. 1
D#[-5---5--3---3--5---5--3---3---5---5--5---5--7---7--5---5---]
A#[--0-0----0-0----0-0----0-0-----0-0----0-0----0-0----0-0----]
F#[---5------5------5------5-------5------5------5------5-----]

D#[-5---5------5----5---5--5---5--5---5--7---7--8---8--10---10--]
A#[--0-0--------0----0-0----0-0----0-0----0-0----0-0-----0-0----]
F#[---5----4s5---5----5------5------5------5------5-------5-----]
Then
Gtr. 2
C#[-7---10---3---0---3---0---3---6---]
G#[-7---10---3---0---3---0---3---7---]
C#[-7---10---3---0---3---0---3---6---]
Gtr. 1
A#[--12--12---10-8-10---12--12---13-10-8---12--12---10-8-10---12--12---6/5/6-]
F#[12--12--12---------12--12--12---------12--12--12---------12--12--12-------]
Then
Gtr. 2
C#[-7-7-7-7-7-7-7-7-7-7-7-7-0-0-0-0-0-0-0-0-0-0-0-0--]
G#[-7-7-7-7-7-7-7-7-7-7-7-7-0-0-0-0-0-0-0-0-0-0-0-0--]x2
C#[-7-7-7-7-7-7-7-7-7-7-7-7-0-0-0-0-0-0-0-0-0-0-0-0--]
Gtr. 1
A#[-10------8------0--------------------------------------------------]
F#[-----------------------2------0/2---0/2-0/2--0/2-4h5-7--9------12--]

Bridge
Gtr. 2
F#[-------------------5---4--]
C#[-7----9--10--3----5---5---]
G#[-7---10--10--3---3---2----]x2
C#[-7----9--10--3------------]
Gtr. 1
D#[-12----15-----------------12-10------------------------------]
A#[---------13-12/0/12--10-13-------15/13/12--------------------]
F#[-----------------------------------------12h14--14s9--7------]

D#[-------15-----------------12-10------------------------------]
A#[-12------13-12/0/12--10-13-------15/13/12----------13--12----]
F#[-----------------------------------------12h14--14-----------]
Then
Gtr. 2
C#[-7/7---7/7---7/7---]
G#[-7/7---7/7---7/7---]x4
C#[-7/7---7/7---7/7---]
Gtr. 1
F#[-14/12/9/12-14/12/14/12/9/12---]
C#[--x/-x/x/-x--x/-x/-x/-x/x/-x---]x4
G#[-12/10/7/10-12/10/12/10/7/10---]

Ending
Gtr. 2
C#[-3---5---7---]
G#[-3---5---7---]x8
C#[-3---5---7---]
Gtr. 1
F#[-14/12/9/12-14/12/14/12/9/12---]
C#[--x/-x/x/-x--x/-x/-x/-x/x/-x---]x8
G#[-12/10/7/10-12/10/12/10/7/10---]


Tabbed by Adam K

Comments about this tab

atheist=freedom - 2006-04-15

u know, even though im atheist this guys do rock, this tab is awesome, no other web site has it, the only suggestion is making it easier toread, like actually having all six string labeled even if theyre not being used


Adam K - 2006-04-18

hey man thanx, I never met an avowed athiest. (It's because I don't believe in athiests)thanx for the comment. Emery rox!!


Add a comment/correction

Complimentary Christian Ringtones
Dadamobile and CGR have teamed up to bring your favorite Christian artists right to your phone. Sign up today and get 10 complementary ringtones!
Tab Country
Did you know CGR has a sister site w/ country guitar tabs? Well we do! Its called Tab Country. It has a great archive with a lot of country tabs.
Rockin Tabs
Are you looking for a site that has rock guitar tabs? Then Rockintabs.com is the place for you. It is a budding site with many rock guitar tabs. Submit your tab today.
Tab Gallery
Tab Gallery has a compilation of christian, rock, and country tabs all in one place. Come visit us.