Guitar Tabs
song title    band name

Join Us Today!

Don't strum alone...
be a part of the largest online Christian music community. Browse thousands of guitar tabs and chat w/ musicians like yourself.


It's Free!

This tab has been rated a 4.50 out of 5 for accuracy. (8 votes)Sorry, but you must be logged in to rate this tab.
Click here to log-in, or you can click here to register.
(Registration is free)

All songs owned by corresponding publishing company. If you make copies of any song on this website, be sure to report your usage to CCLI.
Submitted by: jeffku

Hillsong United - Take It All 
http://www2.hillsong.com/resource/0103-TakeItAll.mp3
Album: United We Stand
Tabbed by: Jeff Ku

I tabbed this as close as possible to the song.  
If you want, Guitar 1 could play along with Guitar 2 during those silences

Guitar 1 

|----------------------14------------------------12--|
|--14-14--12-12--11-11-------14-14--12-12--11-11-----|
|----------------------------------------------------|   Verse
|----------------------------------------------------|
|----------------------------------------------------|
*with delay, notes played twice. 
 without delay, it sounds like notes are played 3 times
**the top e 14 and 12 could be played with mute similar to 14x14x14xx 

1:42"
|-----------------------|
|-----------------------|
|--4444-6666-8888-9999--|   Pre-Bridge
|--2222-4444-6666-7777--|
|-----------------------|

|--------------------------------------------------------------------|
|-12-12-12-------11-11-11-11-11-11-11-11-11-12-12-12-12-12-12-12-12--|
|----------11-11-----------------------------------------------------|   Chorus
|--------------------------------------------------------------------|
|--------------------------------------------------------------------|
*does not represent the exact number, but it's close enough
**BARELY heard in the cd. feel free to improv

Guitar 2

0:25"                   0:41"          
|-----------------------|--------------|
|--444--444--444-33-88--|--------------|
|--444--444--444-33-88--|--66--66--22--|   Verse
|--222--222--222-11-66--|--66--66--22--|
|-----------------------|--44--44--00--|

0:45"                  
|---------------------------|
|--4-----------4--------8---|
|--4--4--6--2--4--4--6--8---|  Chorus
|--2--4--6--2--2--4--6--6---|
|-----2--4--0-----2--4-(6)--|
 
1:42"
|--------------------|
|--4444444444444444--|
|--4444444444444444--|   Pre-Bridge
|--2222222222222222--|
|--------------------|

1:45"
|-----------------------------------2--------|
|--66--------------66---------3b4r3---3b4r3--|
|--66--66--44--22--66--66--44----------------|   Bridge
|--44--66--44--22--44--66--44----------------|
|------44--22--00------44--22----------------|

Comments about this tab

kevin_borst - 2006-04-23

You Rock My World!


cussa20 - 2006-06-07

Absolutely Perfect...Legendary


Simonpo - 2006-12-19

isnt this in the rong key?
other than that, perfect!


LordsWarrior - 2007-03-05

Hi

This is pretty close but can I offer some suggestions (this is how we do it)
Its based on another version of Take it All...I not sure what album its from.

For your "guitar:2 at 0:25) try


0:25" (x3) 0:41"
|-----------------------|------------------------------|
|-----------------------|------------------------------|
|-------------------11--|---6---6--6-------------------| Verse
|--222--222--222-11-----|---6---6--6-------------------|
|-----------------------|--44--44--4 0 0 0 0 0 0 0 0 --|
PM PM <-------PM-------->

PM = palm muting
This keeps the first bit kinda funky,then a heavy crunch into the next vesre/chorus

The chorus to keep it driving PM a bit (on the single note bits) and there is a bend on each F#. Sorta like this
"Jesus we're..........."
|-----------|---------------|---------|-----------|
|-----------|---------------|---------|-----------|
|--4--------|-3b4r3b4r3b4r3-|---------|-9---9-9-9-|
|--4--------|-4-(let ring)--|6--------|-9---9-9-9-|
|--2-222222-|-4-(let ring)--|6--------|-7---7-7-7-|
|-----------|-2-(let ring)--|4 444444-|-0-0-0-0-0-|
<-PM-> <-PM-> <-PM->

|-----------|---------------|---------|---------------|
|-----------|---------------|---------|-5-~~~~-5 ~~~--|
|--4--------|-3b4r3b4r3b4r3-|---------|-5-~~~~-5-~~~--|
|--4--------|-4-(let ring)--|6--------|-5-~~~~-5-~~---|
|--2-222222-|-4-(let ring)--|6--------|---------------|
|-----------|-2-(let ring)--|4 444444-|---------------|
<-PM-> <-PM-> AH TREM AH TREM

So the 3b5r3 bit is bending 3 to 5 then releasing back down to 3

PM = palm muting..
AH = artificial harminics. (Lightly resting our finger over the 5 fret)
TREM = usign th trem to waver he harmonic sound up and down

Note..Like I mentoned this isnt the version in the link above
( http://www2.hillsong.com/resource/0103-TakeItAll.mp3 )

For THIS version instead of the Artificial harmonics I believe hes doing a slow bend:

|------------------|
|------------------|
|------------------|
|------------------|
|--4-b-5-r-4--\--2-|
|------------------|


Also the intro on other version is differerent also. I havent seen anyone tab it here yet. I'lld do it later if any one wants it. But looks like everyone here is mainly playing this version

-LW



LordsWarrior - 2007-03-05

BAH...formating stuffed up!! will try again


LordsWarrior - 2007-03-05

Hi... Try again....pity cant edit previous posts

This is pretty close but can I offer some suggestions (this is how we do it)
Its based on another version of Take it All...I not sure what album its from.

For your "guitar:2 at 0:25) try


0:25" (x3) 0:41"
|-----------------------|------------------------------|
|-----------------------|------------------------------|
|-----------------------|------------------------------|
|-------------------11--|---6---6--6-------------------|
|--222--222--222-11-----|---6---6--6-------------------|
|-----------------------|--44--44--4 0 0 0 0 0 0 0 0 --|


PM = palm muting
This keeps the first bit kinda funky,then a heavy crunch into the next vesre/chorus

The chorus to keep it driving PM a bit (on the single note bits) and there is a bend on each F#. Sorta like this
"Jesus we're..........."
|-----------|---------------|---------|-----------|
|-----------|---------------|---------|-----------|
|--4--------|-3b4r3b4r3b4r3-|---------|-9---9-9-9-|
|--4--------|-4-(let ring)--|6--------|-9---9-9-9-|
|--2-222222-|-4-(let ring)--|6--------|-7---7-7-7-|
|-----------|-2-(let ring)--|4 444444-|-0-0-0-0-0-|


|-----------|---------------|---------|-AH-----AH-----|
|-----------|---------------|---------|-5-~~~~-5 ~~~--|
|--4--------|-3b4r3b4r3b4r3-|---------|-5-~~~~-5-~~~--|
|--4--------|-4-(let ring)--|6--------|-5-~~~~-5-~~~--|
|--2-222222-|-4-(let ring)--|6--------|---------------|
|-----------|-2-(let ring)--|4 444444-|---------------|


So the 3b4r3 bit is bending 3 to 4 then releasing back down to 3

PM = palm muting..
AH = artificial harminics. (Lightly resting our finger over the 5 fret)
TREM = usign th trem to waver he harmonic sound up and down

Note..Like I mentoned this isnt the version in the link above
( http://www2.hillsong.com/resource/0103-TakeItAll.mp3 )

For THIS version instead of the Artificial harmonics I believe hes doing a slow bend: (maybe even be a trem bend on the 4)

|------------------|
|------------------|
|------------------|
|------------------|
|--4-b-5-r-4--\--2-|
|------------------|


Also the intro on other version is different also. I havent seen anyone tab it here yet. I'lld do it later if any one wants it. But looks like everyone here is mainly playing this version

-LW


Add a comment/correction

Complimentary Christian Ringtones
Dadamobile and CGR have teamed up to bring your favorite Christian artists right to your phone. Sign up today and get 10 complementary ringtones!
Tab Country
Did you know CGR has a sister site w/ country guitar tabs? Well we do! Its called Tab Country. It has a great archive with a lot of country tabs.
Rockin Tabs
Are you looking for a site that has rock guitar tabs? Then Rockintabs.com is the place for you. It is a budding site with many rock guitar tabs. Submit your tab today.
Tab Gallery
Tab Gallery has a compilation of christian, rock, and country tabs all in one place. Come visit us.