Guitar Tabs
song title    band name

Join Us Today!

Don't strum alone...
be a part of the largest online Christian music community. Browse thousands of guitar tabs and chat w/ musicians like yourself.


It's Free!

This tab has not yet been rated for accuracy.Sorry, but you must be logged in to rate this tab.
Click here to log-in, or you can click here to register.
(Registration is free)

All songs owned by corresponding publishing company. If you make copies of any song on this website, be sure to report your usage to CCLI.
Submitted by: J0sephYu

Shout to the Lord
by: Darlene Zschech

I noticed there were quite a few submissions for this song, but theyre
all chords and no tabs! Given.. the guitar isnt too dominant in this song,
but I once gave a guitar solo performance for this song, that is, no singing.
Even though I played it solo, it sounds great if theres a rhythm guitar 
playing along with it, so Ill give ya both. (its in the key of C btw)
Ill try to upload a version of this to play along with soon. The melody is
primarily the first two strings, so that should give you a rough idea of where
you are.

Verse:
  C                G             Am       Em       F
e----0---1---3-------------------8-----8-7---3-0-5------------8-7-5-3----
B----1---3---1-------0---1-3-----5---5-------0---------------------------
G--0---0---0---0-----0---2-0-----5-5---------0------------2--------------
D------------------0---0--------------------------------3----------------
A-3----------------------0-2-----0--------------------3------------------
E----------------3-------------------------0--------1--------------------

  C/E      F        C/G      Am7      Bb         Am7 G
e-----0----8-7-5-3--------3--3-1-0-------------------------3-------------
B-----1-----------------1----1-----1--3-------3-3-1--3--------3----------
G---0---0-------------0------0--------3---3-----3-0--0-------------------
D----------3--------------------------3-3---3---3-0--0-------------------
A----------------------------0--------1---------1-0----------------------
E-0------------------3-------------------------------3---3---------------

  C                G             Am       Em       F
e----0---1---3---------------5/7/8-----8-7---3-0-5--------5h7/8-7h8p7-5-3
B----1---3---1-------0---1-3-----5---5-------0---------------------------
G--0---0---0---0-----0---2-0-----5-5---------0---------------------------
D------------------0---0--------------------------------3----------------
A-3----------------------0-2-----0--------------------3------------------
E----------------3-------------------------0--------1--------------------

  C/E      F        C/G      Am7      Bb           Am7 G
e-----0----8-7-5-3--------0--8-8-5--8-10------10-10-8-10-----------------
B-----1-----------------1----5------------------------0------------------
G---0---0-------------0------5----------------------0-0------------------
D----------3--------------------------8---8------8--7-5------------------
A----------------------------0--------8-8---8------------------------0-2-
E-0------------------3----------------6------------------3-3-3-3-3-3-----

Chorus:
  C       Am      F       G        C       Am     F     G 
e-----------------------------------------------0------------------------
B-1-1-0-1---1-0-1---1-0-------0----1-1-0-1--1-3-----3-1-3----------------
G-----0-------0---------2-----0--------0------2-------2-0-------0--------
D---2---2---2---2-----3-----0--------2---2--2---2-3-----------0----------
A-3-------0---------3---3-------2--3-------0--------0--------------------
E-----------------1-------3---------------------------1---3-3------------

  Am              F                G       F        G
e---------------------------------------3--------------------------------
B-1-1-0-1---1-0-1------0---------1-0----------------0------3-------------
G-----2-------2----------2-----2----2p0-----2---2------0-----------------
D---2---2---2---2------3-------3----------------3----0---0-3-------------
A-0-------0---------3----3---3---3------------3----------------0-2-------
E-----------------1--------1-------3------3-1-----1-3--------3-----------

  C       Am      F       G        C       Am     F     G 
e-----------------------------------------------0---1-0------------------
B-1-1-0-1---1-0-1---1-0-------0----1-1-0-1--1-3-------2-3----------------
G-----0-------0---------2-----0--------0------2-----2---2-0-----0--------
D---2---2---2---2-----3-----0--------2---2--2---2-3-----------0----------
A-3-------0---------3---3-------2--3-------0-----------------------------
E-----------------1-------3---------------------------------3------------

  Am              F       G       C               G           C
e-------------------------------------0---1---3-------------------------
B-1-1-0-1---1-0-1---1-0-------0-------1---3---1-------0---1-3-1---------
G-2---------2-0-2-------2-----0-----0---0---0---0-----0---2-0-0---------
D-2-------2-----------3-----0-----------------------0-----2-0-2---------
A-0------0----------3---3-------2-3-----------------------0-2-3---------
E-----------------1-------3-----------------------3-----3---------------

Zschech, Darlene  1993 Darlene Zschech

Comments about this tab

No comments/corrections found. Add your own

Complimentary Christian Ringtones
Dadamobile and CGR have teamed up to bring your favorite Christian artists right to your phone. Sign up today and get 10 complementary ringtones!
Tab Country
Did you know CGR has a sister site w/ country guitar tabs? Well we do! Its called Tab Country. It has a great archive with a lot of country tabs.
Rockin Tabs
Are you looking for a site that has rock guitar tabs? Then Rockintabs.com is the place for you. It is a budding site with many rock guitar tabs. Submit your tab today.
Tab Gallery
Tab Gallery has a compilation of christian, rock, and country tabs all in one place. Come visit us.