Guitar Tabs
song title    band name

Join Us Today!

Don't strum alone...
be a part of the largest online Christian music community. Browse thousands of guitar tabs and chat w/ musicians like yourself.


It's Free!

This tab has been rated a 4.00 out of 5 for accuracy. (5 votes)Sorry, but you must be logged in to rate this tab.
Click here to log-in, or you can click here to register.
(Registration is free)

All songs owned by corresponding publishing company. If you make copies of any song on this website, be sure to report your usage to CCLI.
Submitted by: live_4_him

Stay 
Jeremy Camp
Live Unplugged

Tabed by Live_4_Him    

Capo 4:
 Intro:                                                                                                                                                                                            
E---------0----------------0-----------------0--------------0----------               
B-----------3---3------------3---3------------3---3----------3----3--               
G-------------4-----------------4----------------4---------------4-----               
D------4----------------4-----------------4---------------4------------               
A---2----------------0----------------------------------0---------------             
E---------------------------------------3--------------------------------             
                                                                                      
E--------0-----------------0-----------                                                          
B----------3----3------------3---4----                                                         
G------------4-----------------4-------                                                          
D-----4-----------------4--------------                                                         
A---2----------------0-----------------                                                          
E--------------------------------------3                                                          
                                                     


Verse: 4x

E---------0----------------0-----------------0--------------0--------
B-----------3---3------------3---3------------3---3----------3----3-- 
G-------------4-----------------4----------------4---------------4---        
D------4----------------4-----------------4---------------4----------
A---2----------------0----------------------------------0------------
E---------------------------------------3----------------------------

Pre Chorus:
    Em7   G2      Em7    Asus
E---3------3-------3-------0---
B---3------3-------3-------3---
G---0------0-------0-------2---
D---2------0-------2-------2---
A---2------2-------2-------0---
E---0-------3------0-------x---

Chorus

E----0------5------0------0----
B----3------0------3------3----
G----4------0------2------2----   4x
D----4------0------0------2----
A----2------2------0------0----
E----x------3-------x-----0----

Bridge

E------2------3----
B------2------3----
G------3------4----    4x
D------4------5----
A------4------5----
E------2------3----

Comments about this tab

JesusmyKing - 2006-12-04

A++++++++++++ man i love it. sounds great.
Can somebody please do the guitar solo in the unplugged version PLEASE!!!
God Bless,
Brandon


JesusmyKing - 2006-12-04

Who rated this a Zero?? this tab is great, good job man
God Bless
Brandon


GuitarGluv - 2007-05-05

What are these chords right here?

Chorus

E----0------5------0------0----
B----3------0------3------3----
G----4------0------2------2---- 4x
D----4------0------0------2----
A----2------2------0------0----
E----x------3-------x-----0----

Bridge

E------2------3----
B------2------3----
G------3------4---- 4x
D------4------5----
A------4------5----
E------2------3----


erhart105 - 2007-09-25

wow great job!! this is perfect! 5 stars!


live_4_him - 2008-08-26

Those Chords in the chorus are as follows. Bm, G (variation), D2, A2 - Hope that helps the next two are the bridge - F#, G - Remember all these are with the capo on 4, so these are not in standard open. its all relative to the capo. Hope this Helps out!

God Bless

Derek


zapugh_33 - 2008-09-03

R u serious? someone rated this a zero, thats crazy, this tab was near perfect. I watched the live video and for the most part id say this was it, besides all the other tabs ive seen get it wrong sayin its capo 2 or not at all, this is the only guy who realized its 4, well done dude.


Add a comment/correction

Complimentary Christian Ringtones
Dadamobile and CGR have teamed up to bring your favorite Christian artists right to your phone. Sign up today and get 10 complementary ringtones!
Tab Country
Did you know CGR has a sister site w/ country guitar tabs? Well we do! Its called Tab Country. It has a great archive with a lot of country tabs.
Rockin Tabs
Are you looking for a site that has rock guitar tabs? Then Rockintabs.com is the place for you. It is a budding site with many rock guitar tabs. Submit your tab today.
Tab Gallery
Tab Gallery has a compilation of christian, rock, and country tabs all in one place. Come visit us.