Guitar Tabs
song title    band name

Join Us Today!

Don't strum alone...
be a part of the largest online Christian music community. Browse thousands of guitar tabs and chat w/ musicians like yourself.


It's Free!

This tab has been rated a 2.67 out of 5 for accuracy. (3 votes)Sorry, but you must be logged in to rate this tab.
Click here to log-in, or you can click here to register.
(Registration is free)

All songs owned by corresponding publishing company. If you make copies of any song on this website, be sure to report your usage to CCLI.
Submitted by: corinthians520

Capo 3 on his myspace
Capo 6 on the cd

Verse: 
  3x               3x
E----------------------------------------
B----1-----------------1-----------------
G----0------0----0-----2------2----0-----
D--2---2-------------2---2---------------
A-3-------3----2----0-------0----2-------
E----------------------------------------
Chorus:
E--------------------------------------------------------
B----2------2-------1-------1-------1-------1-------1------
G----2------2-------0-------0-------0-------0-------2--------
D--3---3--3---3---0---0---0---0---2---2---0---0---2---2--2----
A--------------------------------3-------2-------0------0----------
E-1------1------3-------3----------------------------------0-

Comments about this tab

Mandi9 - 2006-03-10

this doesn't sound right at all.... sorry man


corinthians520 - 2006-03-16

On Myspace I think he played it slightly different, I think this is right for the cd though

really its

Capo 6

Verse:
3x 3x
E----------------------------------------
B----1-----------------1-----------------
G----0------0----0-----2------2----0-----
D----------------------------------------
A-3-------3----2----0-------0----2-------
E----------------------------------------


corinthians520 - 2006-03-16

Hopefully this is a little clearer

Capo 6

Verse:

E-----------------------------------------------------------
B----1----1----1---------------1----1----1------------------
G----0----0----0----0----0-----0----0----0-----0-----0-----
D----------------------------------------------------------
A-3---- 3----3----3----2-----0----0----0-----0----2--------
E----------------------------------------------------------


amp6775 - 2006-03-20

Here's a video of Shawn performing a live studio version of "Pour Out", I'm pretty sure it's CAPO 3.

Windows Media


Real Audio


gzuzrocks - 2006-03-20

Hi, The "pour out" version you made for the CD version is a lot easier for me to follow. Can you possibly tab the chorus for the cd version too? That would be AWESOME! :-)


corinthians520 - 2006-03-28

It is capo 3 when he plays it live, but i think its different on the cd.


alex_light - 2006-03-28

Your correction to the tab is correct. The chorus is completely wrong though. Im working it out right now Ill post back up when I get it.


jeffy777 - 2006-05-20

The verse is just right, but any updates on the chorus?


cjval09 - 2006-11-10

I am having trouble figuring out this chours, is it possible if someone can tab it and send it to me at cjval09@snet.net Thanks guys. God Bless.


Add a comment/correction

Complimentary Christian Ringtones
Dadamobile and CGR have teamed up to bring your favorite Christian artists right to your phone. Sign up today and get 10 complementary ringtones!
Tab Country
Did you know CGR has a sister site w/ country guitar tabs? Well we do! Its called Tab Country. It has a great archive with a lot of country tabs.
Rockin Tabs
Are you looking for a site that has rock guitar tabs? Then Rockintabs.com is the place for you. It is a budding site with many rock guitar tabs. Submit your tab today.
Tab Gallery
Tab Gallery has a compilation of christian, rock, and country tabs all in one place. Come visit us.