Guitar Tabs
song title    band name

Join Us Today!

Don't strum alone...
be a part of the largest online Christian music community. Browse thousands of guitar tabs and chat w/ musicians like yourself.


It's Free!

This tab has been rated a 5.00 out of 5 for accuracy. (2 votes)Sorry, but you must be logged in to rate this tab.
Click here to log-in, or you can click here to register.
(Registration is free)

All songs owned by corresponding publishing company. If you make copies of any song on this website, be sure to report your usage to CCLI.
Submitted by: Adam K

Kids In the Way-Last Day Of 1888
From:Apparitions Of Melody
Copyright  2005 Flicker Records
Drop C# Tuning C#-G#-C#-F#-A#-D#

p=pull off 
palm mute=....etc.
h=hammer on

Intro
C#[-14/14--]
G#[-10/10--]
C#[-10/10--]
Then
C#[-15---14----10----12--]
G#[-12---10-----7-----8--]
C#[-12---10-----7-----8--]
Then
A#[-6----8-5--6----8-5--6--]
F#[-5----5-5--5----5-5--5--]
C#[-0---------0---------0--]
G#[-0---------0---------0--]
C#[-0---------0---------0--]

Verse 1
A#[---6p5-6p5---6p5--6p5---6p5---8-5--]
F#[-5----5---5-----5----5-----5-------]x2

Chorus
C#[-15---14----10----12--]
G#[-12---10-----7-----8--]x2
C#[-12---10-----7-----8--]

Post-Chorus
A#[-6----8-5--6----8-5--6--]
F#[-5----5-5--5----5-5--5--]
C#[-0---------0---------0--]
G#[-0---------0---------0--]
C#[-0---------0---------0--]

Verse 2
(same as verse 1)

Chorus

Post-Chorus 2
C#[-7/8----10/12----10/12----10/12--]
G#[-7/8-----7/-8-----7/-8-----7/-8--]
C#[-7/8-----7/-8-----7/-8-----7/-8--]

Bridge
Gtr. 2
C#[-----------------------]
G#[-----------------------]x2
C#[-12----10----7----3----]
    ......................
then
Gtr. 2
C#[-----------------------]
G#[-----------------------]
C#[-12----10----7----3----]
    ......................
Gtr. 2
C#[-----------------------]
G#[-----------------------]
C#[-12----14----7----8----]
    ....................
Gtr. 1
A#[-10/10/10/10/10/10/10/10/10/10/8h10p8--------------------------]
F#[--------------------------------------7/7/7/7/7/7/7/7/7/7/7/7--]

C#[-7/7/7/7/7/7/7/7/7/7/7/7/8/8/8/8/8/8/8/8/8/8/8/8---------------]

A#[-10/10/10/10/10/10/10/10/10/10/8h10p8--------------------------]
F#[--------------------------------------7/7/7/7/7/7/7/7/7/7/7/7--]

C#[-7/7/7/7/7/7/7/7/7/7/7/7/8/8/8/8/8/8/8/8/8/8/8/8---------------]

Chorus x2

Ending
C#[-15---14----10----12--]
G#[-12---10-----7-----8--]
C#[-12---10-----7-----8--]

A#[-6----]
F#[-5----]
C#[-0----]
G#[-0----]
C#[-0----]


Tabbed by Adam K

Comments about this tab

akaukal - 2006-04-02

one thing, it would be easier if u added the strumming


trmcello24 - 2006-04-25

dude if he added the strumming, it would be really long, and really hard to write. anyways just figure it out for yourself. its really easy. nice tab btw.


ice_wiz - 2006-05-01

Dude, you have MAD tabbing skillz!


tl_guitarnut - 2006-05-14

You are an awsome tabber Adam! Keep rocken' for GOD!


arisar - 2006-07-13

i can't play this


rokrdude - 2006-08-02

i no git ummmmmmmmmm i tried playing wut i saw and be rong so help cuz it supposed to be like perfect


rokrdude - 2006-08-02

oh and an easier way to write this tuning if u tab a song with this tuning would be drop Db


Add a comment/correction

Complimentary Christian Ringtones
Dadamobile and CGR have teamed up to bring your favorite Christian artists right to your phone. Sign up today and get 10 complementary ringtones!
Tab Country
Did you know CGR has a sister site w/ country guitar tabs? Well we do! Its called Tab Country. It has a great archive with a lot of country tabs.
Rockin Tabs
Are you looking for a site that has rock guitar tabs? Then Rockintabs.com is the place for you. It is a budding site with many rock guitar tabs. Submit your tab today.
Tab Gallery
Tab Gallery has a compilation of christian, rock, and country tabs all in one place. Come visit us.