Guitar Tabs
song title    band name

Join Us Today!

Don't strum alone...
be a part of the largest online Christian music community. Browse thousands of guitar tabs and chat w/ musicians like yourself.


It's Free!

This tab has been rated a 4.00 out of 5 for accuracy. (2 votes)Sorry, but you must be logged in to rate this tab.
Click here to log-in, or you can click here to register.
(Registration is free)

All songs owned by corresponding publishing company. If you make copies of any song on this website, be sure to report your usage to CCLI.
Submitted by: lctp2022

You Are My Joy by David Crowder Band (A Collision)

Tuning: Eb Ab Db Gb Bb Eb

Am:  x02210
F:   x33210
G:   320003 or 3x0003
C:   x32010
G/B: x20003
Em:  022000


Verse: Am F (twice)

Pre-Chorus: 

Em  Am  G  F (twice)  then C before chorus  
                                        
Electric Part: (on e and B strings)
e --17--15---12----15-----17---15---12-------12----12-----
B --------------------------------------15------15----13--


Chorus:	  

F    C G/B (twice) then verse progression (Am, F) back to verse

Electric Part for Chorus: (reverb, distortion)
e --12-----7-----8-8-8-8--10-10-10-10-  twice
B ------8-----8-----------------------  



Coming out of second Chorus... (C G/B)... 
F    C   (Let C ring then bridge)

Bridge:
Instrumental Parts: Parts 1 and 3 repeat each note 8 times quickly
Part 2 let notes ring first few times

Part 1: Acoustic (After 2 violins)
e --------------
B --5--2--4-----
G --5--3--4-----
D --5--2--4-----
A --------------
E --------------

Part 2: Distortion               Part 3: Distortion
G --5---3---4--------             G --9---6---8-----
D --5-------4--------             D ----------------
A --3---1---2--------             A --7---4---6-----
E -------------------             E ----------------

Part 4: Using Hammer-on technique
(index finger or pick for hammering 20,
keep one finger on 12 and hammer 15 with another finger)

highE string ---20---15---12--(repeat quickly)---19---14---11---


Then Riff Changes:                       ending notes
B -------------------------------12--    -----    ----
G -12--9------------------8--11------    -----    -9--
D -12--9--10--8--11-8--9--8--11--9--- x3 --10- or ----
A -10--7--10--8--11-8--9--6--9-------    --10-    -7--
E --------8---6--9--6--7-------------    --8--    ----

Electric Solo (Come in after one riff)
(the p means pick fastly, like 32nd notes)
E -15p-14-12-12----14--12--11p-----------------
B ------------------------------13p--12p------

E -15p--17p--15p---14--15--14p----11p---------12- (ending note)
B --------------------------------------12p------


Back to Chorus

Hold out F and then end with C

Comments about this tab

lctp2022 - 2006-04-05

yeah i found out crowder has that tab on his site, wish i knew before i tabbed it out, but my tab is pretty close. he does somethin a little different for the acoustic verse part but mostly its about the same without little details.


Klyde - 2006-08-24

yeah the chords are right. if you want the perfect crowder chords, go to his site.


Add a comment/correction

Complimentary Christian Ringtones
Dadamobile and CGR have teamed up to bring your favorite Christian artists right to your phone. Sign up today and get 10 complementary ringtones!
Tab Country
Did you know CGR has a sister site w/ country guitar tabs? Well we do! Its called Tab Country. It has a great archive with a lot of country tabs.
Rockin Tabs
Are you looking for a site that has rock guitar tabs? Then Rockintabs.com is the place for you. It is a budding site with many rock guitar tabs. Submit your tab today.
Tab Gallery
Tab Gallery has a compilation of christian, rock, and country tabs all in one place. Come visit us.