Guitar Tabs
song title    band name

Join Us Today!

Don't strum alone...
be a part of the largest online Christian music community. Browse thousands of guitar tabs and chat w/ musicians like yourself.


It's Free!

This tab has been rated a 5.00 out of 5 for accuracy. (1 vote)Sorry, but you must be logged in to rate this tab.
Click here to log-in, or you can click here to register.
(Registration is free)

All songs owned by corresponding publishing company. If you make copies of any song on this website, be sure to report your usage to CCLI.
Submitted by: Handsome

This is Disaster Tourism, from Catch For Us The Foxes. 2004 Tooth and Nail.
I'd tell you it's a sweet song, but I'm sure you already know that.

Intro/Verse
Guitar 1:
e------------------------------------------------------
B------------------------------------------------------
G------------------------------------------------------
D------7p0-10p0-7p0--------------7p0-10p0-7p0----------
A-------------------888777--------------------888777---
E-8h10--------------------888h10--------------------88-

Guitar 2: RIFF 1 (with some strange wah and delay stuff happening)
e-12-12------------------------------12------12-12-12-12-12-12-12-12-
B------13-------------13---------13-------13-13-13-13-13-13-13-13-13-
G--------14--14-14-14----14-14-14--14---14---14-14-14-14-14-14-14-14-
D--------------------------------------------------------------------
A--------------------------------------------------------------------
E--------------------------------------------------------------------

  "Call me outside..."
 RIFF 2
e-------------------------------------------------------------
B-------------------------------------------------------------
G-13h14-14-14-14-14-14-14p13-13-13h14-14-14-14-14-14-14p13-13-
D-------------------------------------------------------------
A-------------------------------------------------------------
E-------------------------------------------------------------

repeat that riff a bunch, adding in
e---12---
B-13--13- 's and the like as you see fit... just basically pick some notes
            on a high Am chord.

then (still Guitar 2, mind you) "When I satisfied..."
  RIFF 3
e-5--5--5--5--5--5--5--5---5--5--5--5--5--5--5--5---
B-8~-8~-8~-8~-8~-8~-8~-8~--8~-8~-8~-8~-8~-8~-8~-8~--
G---------------------------------------------------
D---------------------------------------------------
A---------------------------------------------------
E---------------------------------------------------

e-8--8--8--8--8--8--8--10---5--5--5--5--5--5--5--5--5--
B-11~11~11~11~11~11~11~13---8~-8~-8~-8~-8~-8~-8~-8~-8~-
G------------------------------------------------------
D------------------------------------------------------
A----------------------------------------------------
E----------------------------------------------------
 I'm not sure exactly how to tab that, but just bend the B-string untill the 
pitch is the same as the e-string's.

more Guitar 2: "When I satisfied..."
  RIFF 4
e-17...18...19...17...18...19...21...19...18...17...17-17h19--
B-------------------------------------------------------------
G-------------------------------------------------------------
D-------------------------------------------------------------
A-------------------------------------------------------------
E-------------------------------------------------------------

then:
e-------
B-------
G-----2-
D-7-5-2-
A-5-3-0-
E-------
  DmC Am

Then one guitar picks: 
e-----------------------------------
B-----------------------------------
G---2--2--2--2--2---2--2--2--2--2---
D--2--2--2--2--2---2--2--2--2--2----
A-0--0--0--0--0---0--0--0--0--0-----
E-----------------------------------
 
then:                          "Like cocaine..."
e------------------------------0---------------------
B------------------------------0-----------1-----3---
G------------------------------5-----------2-----4---
D------------------------7-5-2-7----7-5-2--3-----5---
A------------------------5-3-0-0----5-3-0--0-----0--- a few times
E----------------------------------------------------
                         DmC Am     DmC Am Fmaj7 G2
   Just listen to the cd for the timing, you should get it.

Then back into the intro riff for Guitar 1, and Guitar 2 does Riff 1 for a while,
then Riff 4.

Then this ending, with delay:
e----------------------------------------------------------------
B----------------------------------------------------------------
G-5-5s7-7s9---9---7-7s9---9s10--10--9---9s10-10s12--12-----------
D-7-7s9-9s10--10--9-9s10-10s12--12--10-10s12-12s14--14slide down-
A----------------------------------------------------------------
E----------------------------------------------------------------

A couple times, then end on the first chord.


Well, I know that's an accurate tab, I'm just a bit worried about the
formatting and stuff... it might be a bit confusing, but I think I covered
most of it. I'll check back if anybody wants to leave a comment to get some
clarification. It's pretty late, so I may have made a couple errors too.

Thanks a bundle.
Kenny B

Comments about this tab

MelodyMaker - 2006-08-20

Hey that tab is great and I have been looking for the song forever thanks alot, and great job!


Add a comment/correction

Complimentary Christian Ringtones
Dadamobile and CGR have teamed up to bring your favorite Christian artists right to your phone. Sign up today and get 10 complementary ringtones!
Tab Country
Did you know CGR has a sister site w/ country guitar tabs? Well we do! Its called Tab Country. It has a great archive with a lot of country tabs.
Rockin Tabs
Are you looking for a site that has rock guitar tabs? Then Rockintabs.com is the place for you. It is a budding site with many rock guitar tabs. Submit your tab today.
Tab Gallery
Tab Gallery has a compilation of christian, rock, and country tabs all in one place. Come visit us.