Guitar Tabs
song title    band name

Join Us Today!

Don't strum alone...
be a part of the largest online Christian music community. Browse thousands of guitar tabs and chat w/ musicians like yourself.


It's Free!

This tab has been rated a 4.11 out of 5 for accuracy. (19 votes)Sorry, but you must be logged in to rate this tab.
Click here to log-in, or you can click here to register.
(Registration is free)

All songs owned by corresponding publishing company. If you make copies of any song on this website, be sure to report your usage to CCLI.
Submitted by: Adam K

Shut Me Out-Kutless
From:Hearts Of The Innocent
Copyright  2006 BEC Records
Drop C# Tuning C#-G#-C#-F#-A#-D#

palm mute=.... etc.
s=slide
h=hammer on
b=bend
rb=return bend

Intro
F#[----7------------7------------7-----------------------]
C#[-0--7-x5/7-3--0--7-x5/7-3--0--7-x5/7-3--8/8/8/8/xx10--]
G#[-0--5-x5/7-3--0--5-x5/7-3--0--5-x5/7-3--8/8/8/8/xx10--]x2
C#[-0----x5/7-3--0----x5/7-3--0----x5/7-3--8/8/8/8/xx10--]

Verse 1
F#[---------------------------------5/5/5/5/5/5/5/5/5/5/5/5/5/5/5/5--]
C#[-0/0/0/0/0/0/0/0/0/0/0/0/0/0/0/0/5/5/5/5/5/5/5/5/5/5/5/5/5/5/5/5--]
G#[-0/0/0/0/0/0/0/0/0/0/0/0/0/0/0/0/3/3/3/3/3/3/3/3/3/3/3/3/3/3/3/3--]
C#[-0/0/0/0/0/0/0/0/0/0/0/0/0/0/0/0----------------------------------]
    ................................................................

C#[-5/5/5/5/5/5/5/5/5/5/5/5/5/5/5/5/0/0/0/0/0/0/0/0/0/0/0/0/0/0/0/0--]
G#[-5/5/5/5/5/5/5/5/5/5/5/5/5/5/5/5/0/0/0/0/0/0/0/0/0/0/0/0/0/0/0/0--]
C#[-5/5/5/5/5/5/5/5/5/5/5/5/5/5/5/5/0/0/0/0/0/0/0/0/0/0/0/0/0/0/0/0--]
    ................................................................
Then
Gtr. 2
F#[---------------------------------5/5/5/5/5/5/5/5/5/5/5/5/5/5/5/5--]
C#[-0/0/0/0/0/0/0/0/0/0/0/0/0/0/0/0/5/5/5/5/5/5/5/5/5/5/5/5/5/5/5/5--]
G#[-0/0/0/0/0/0/0/0/0/0/0/0/0/0/0/0/3/3/3/3/3/3/3/3/3/3/3/3/3/3/3/3--]
C#[-0/0/0/0/0/0/0/0/0/0/0/0/0/0/0/0----------------------------------]
    ................................................................

C#[-5/5/5/5/5/5/5/5/5/5/5/5/5/5/5/5/0/0/0/0/0/0/0/0/0/0/0/0/0/0/0/0--]
G#[-5/5/5/5/5/5/5/5/5/5/5/5/5/5/5/5/0/0/0/0/0/0/0/0/0/0/0/0/0/0/0/0--]
C#[-5/5/5/5/5/5/5/5/5/5/5/5/5/5/5/5/0/0/0/0/0/0/0/0/0/0/0/0/0/0/0/0--]
    ................................................................
Gtr. 1
A#[-10----------10--------------------------]
F#[----------10--------9-10-9-------10-9----]
Then
Gtr. 2
C#[-0-2-3--]
G#[-0-2-3--]
C#[-0-2-3--]
Gtr. 1
F#[-7-9-10--]
C#[-x-x--x--]
G#[-5-7--8--]

Pre-Chorus
C#[-5/5/5--------0/0/0--------5/5/5--------10----]
G#[-5/5/5--------0/0/0--------5/5/5--------10----]
C#[-5/5/5--------0/0/0--------5/5/5--------10----]

Chorus
F#[----7------------7------------7-----------------------]
C#[-0--7-x5/7-3--0--7-x5/7-3--0--7-x5/7-3--8/8/8/8/xx10--]
G#[-0--5-x5/7-3--0--5-x5/7-3--0--5-x5/7-3--8/8/8/8/xx10--]x2
C#[-0----x5/7-3--0----x5/7-3--0----x5/7-3--8/8/8/8/xx10--]

Verse 2
Gtr. 2
F#[---------------------------------5/5/5/5/5/5/5/5/5/5/5/5/5/5/5/5--]
C#[-0/0/0/0/0/0/0/0/0/0/0/0/0/0/0/0/5/5/5/5/5/5/5/5/5/5/5/5/5/5/5/5--]
G#[-0/0/0/0/0/0/0/0/0/0/0/0/0/0/0/0/3/3/3/3/3/3/3/3/3/3/3/3/3/3/3/3--]
C#[-0/0/0/0/0/0/0/0/0/0/0/0/0/0/0/0----------------------------------]
    ................................................................

C#[-5/5/5/5/5/5/5/5/5/5/5/5/5/5/5/5/0/0/0/0/0/0/0/0/0/0/0/0/0/0/0/0--]
G#[-5/5/5/5/5/5/5/5/5/5/5/5/5/5/5/5/0/0/0/0/0/0/0/0/0/0/0/0/0/0/0/0--]
C#[-5/5/5/5/5/5/5/5/5/5/5/5/5/5/5/5/0/0/0/0/0/0/0/0/0/0/0/0/0/0/0/0--]
    ................................................................
Gtr. 1
A#[-10----------10--------------------------]
F#[----------10--------9-10-9-------10-9----]

Then
Gtr. 2
F#[---------------------------------5/5/5/5/5/5/5/5/5/5/5/5/5/5/5/5--]
C#[-0/0/0/0/0/0/0/0/0/0/0/0/0/0/0/0/5/5/5/5/5/5/5/5/5/5/5/5/5/5/5/5--]
G#[-0/0/0/0/0/0/0/0/0/0/0/0/0/0/0/0/3/3/3/3/3/3/3/3/3/3/3/3/3/3/3/3--]
C#[-0/0/0/0/0/0/0/0/0/0/0/0/0/0/0/0----------------------------------]
    ................................................................

C#[-5/5/5/5/5/5/5/5/5/5/5/5/5/5/5/5/0/0/0/0/0/0/0/0/0/0/0/0/0/0/0/0--]
G#[-5/5/5/5/5/5/5/5/5/5/5/5/5/5/5/5/0/0/0/0/0/0/0/0/0/0/0/0/0/0/0/0--]
C#[-5/5/5/5/5/5/5/5/5/5/5/5/5/5/5/5/0/0/0/0/0/0/0/0/0/0/0/0/0/0/0/0--]
    ................................................................
Gtr. 1
A#[-10------------10-------------------------------]
F#[-----7---9-10-9--------9-10-9-------10-9--7-----]
Then
Gtr. 2
C#[-0-2-3--]
G#[-0-2-3--]
C#[-0-2-3--]
Gtr. 1
F#[-7-9-10--]
C#[-x-x--x--]
G#[-5-7--8--]

Pre-Chorus

Chorus 2
F#[----7------------7------------7-----------------------]
C#[-0--7-x5/7-3--0--7-x5/7-3--0--7-x5/7-3--8/8/8/8/xx10--]
G#[-0--5-x5/7-3--0--5-x5/7-3--0--5-x5/7-3--8/8/8/8/xx10--]
C#[-0----x5/7-3--0----x5/7-3--0----x5/7-3--8/8/8/8/xx10--]

F#[----7------------7------------7---------------------------------]
C#[-0--7-x5/7-3--0--7-x5/7-3--0--7-x5/7-3--8/8/8/8/xx10-xx10-xx10--]
G#[-0--5-x5/7-3--0--5-x5/7-3--0--5-x5/7-3--8/8/8/8/xx10-xx10-xx10--]
C#[-0----x5/7-3--0----x5/7-3--0----x5/7-3--8/8/8/8/xx10-xx10-xx10--]

Bridge
Gtr. 2
C#[-8--------0----5-7-10-8--------0----5-7-10--8-7-3-0--]
G#[-8--------0----5-7-10-8--------0----5-7-10--8-7-3-0--]
C#[-8--------0----5-7-10-8--------0----5-7-10--8-7-3-0--]
Gtr. 1
D#[----------------------13-12-10--17-15-13--10-15-13--12brbbrb--------------]
A#[------8s10----------------------------------------------------------------]
F#[-10--------12h14--14------------------------------------------------------]
C#[----------------12--------------------------------------------------------]
G#[--------------------------------------------------------------8--7--10-12-]

Chorus 3
F#[----7------------7------------7-----------------------]
C#[-0--7-x5/7-3--0--7-x5/7-3--0--7-x5/7-3--8/8/8/8/xx10--]
G#[-0--5-x5/7-3--0--5-x5/7-3--0--5-x5/7-3--8/8/8/8/xx10--]x3
C#[-0----x5/7-3--0----x5/7-3--0----x5/7-3--8/8/8/8/xx10--]

F#[----7------------7------------7-----------------------------------]
C#[-0--7-x5/7-3--0--7-x5/7-3--0--7-x5/7-3--8/8/8/8/xx10-xx10-xx10-0--]
G#[-0--5-x5/7-3--0--5-x5/7-3--0--5-x5/7-3--8/8/8/8/xx10-xx10-xx10-0--]
C#[-0----x5/7-3--0----x5/7-3--0----x5/7-3--8/8/8/8/xx10-xx10-xx10-0--]


Tabbed by Adam K

Comments about this tab

Falcon-fever777 - 2006-03-03

AAAAAAAAAAAAAAAAAAWWWWWWWWWWWWWWWWEEEEEEEEEEESSSSSSSSSSSSOOOMMMMMEEEEEEEEEEE!!!
I can't wait to hear it!!!!!!!!!!!!!!!!! March 21!!!!!!!!


trmcello24 - 2006-03-04

Awesome band, great message, sweet tab!


sumfears - 2006-03-07

awsome tab....u might know this but u can hear some of there new songs at

http://purevolume.com/kutless

hope u enjoy God Bless


fireproof101 - 2006-03-09

Thx for the tab Adam!!! It's awesome!!!


Vatman - 2006-03-10

sweet deal cant wait to try it but it looks a 100% good job!!
God bless!!!


BULLDOZER - 2006-03-24

THANXS ALOT BRO FOR POSTING UP THESE RIFS


TFK_guy - 2006-03-31

really good tab but one mistake i've noticed so far, in the solo you have it all right but one part
d#-----------------
a#-----------------
f#---12h14r12----14
c#------------12---


Kutlessfan501 - 2006-04-05

AWESOME TAB DUDE!!! I love this tab and I love this songs, the Music Video is the best!
Koodohs! (mispelling intentional)


sold out - 2006-04-13

Hey, awesome tab. Ithink it's a 1/2 step higher though. Isn't it?


guitarguy38 - 2006-04-26

Ok, I'm not totally sure about this, but I'm thinking that instead of
F#[----7---
C#[-0--7-x5
G#[-0--5-x5
C#[-0----x5
it should be
C#[-0-12s5
G#[-0-12s5
C#[-0-12s5
Mark


Adam K - 2006-04-27

yeah guitarguy your right. They only do that on the last chorus though.


sold out - 2006-04-29

Hey guys. I'm sorry. I messed upmy last comment. I think it's supposed to be in drop C tuning and a 1/2 step higher. I think that sounds right.


fireproof101 - 2006-06-08

For sold out:

C# tuning is C tuning but half a step up. Also, Db tuning is the same as C# so C# tuning is one half step higher than C tuning and one half step lower than D tuning.

Does that make sense?


tl_guitarnut - 2006-06-28

it did to me


sold out - 2006-07-22

yes it does. I should've known that,too. especially since I've been playing guitar for 4 years.


U B the band - 2006-07-25

I believe this is how to play the solo-PMT
Solo Guitar two:
Eb|------------------------------------17-15-13--15-13------------------|
Bb|---------------------15----18-17-15---------15-----------------------|
Gb|--10--12-14--14-12-14--14--------------------------------10-9-12-14--|
Db|-----------------------------------------------------9b---x-x--x--x--|
Ab|----------------------------------------------------------8-7-10-12--|
Db|---------------------------------------------------------------------|


U B the band - 2006-08-09

never mind just go to ultimate-guitar.com i have it there all fixed and corrected-PMT


guitarcordfreak - 2006-10-05

one small clarification/correction. on the chorus at the end be for you hit this chord 10 the P.M. should be 0 that's all that I have seen so far.
10 0
10 0


perpetualfaith - 2006-11-28

good tab man only problem why does kutless always have their music in drop db its kinda a pain to be hounest i was gonna have our band play this but i dont know how well the other guitarest really wants to do any retuning but its all good any one heard of red by the way


3rd Bassman - 2006-12-25

yeah most all of their stuff is in drop c# too ;)-i saw red on the accelerate tour with decyfer down and nevertheless, and they blew the other bands away... (the others were good still ;)


rednaxela - 2007-01-03

For the bridge what about this
Eb|--------------------------13-12-10-17-15-13-12-10-17-13-12b--------------
Bb|-------------------15----------------------------------------------------|
Gb|10--12-14--14-12-14--14---10--9--7-14-12-10--9--7-14--9--9b--10-9-12-14--|
Db|-------------------------------------------------------------x-x--x--x---|
Ab|------------------------------------------------------------- 8-7-10-12--|
Db|-------------------------------------------------------------------------|


jesusfreak936 - 2007-01-04

Adam, you are my hero...


Andy C. - 2007-02-16

On the verses, it's a little different. On verse 1, after the gtr. 2 part, Gtr. 1 should come in on:
Bb [10 10 ]
Gb [ 9/10 9/10 9 10 9]

On verse 2 it comes in directly after the chorus the same as the 2nd half of verse 1 then it's
Bb [10 10 ]
Gb [ 7 9/10 7 9 9/10 9]
Db [ 7 ]

Then on the solo I believe U B the Band is correct on the notes they are just up an octave so it would be:
Eb
Bb [ 10 8 8
Gb [10 12 14 14/12/14/12/14 10 9 7 10 7 10 9h10p9h10p9h10p9h10
Db
Ab [ 8 7 10 12


Andy C. - 2007-02-16

Sorry. They screwed up my submission. If you pay attention to the song, you should be able to figure it out easy enough.
P.S. Great tab Adam


0neguitar4God - 2007-10-30

Very nice! Good job Adam K!


Add a comment/correction

Complimentary Christian Ringtones
Dadamobile and CGR have teamed up to bring your favorite Christian artists right to your phone. Sign up today and get 10 complementary ringtones!
Tab Country
Did you know CGR has a sister site w/ country guitar tabs? Well we do! Its called Tab Country. It has a great archive with a lot of country tabs.
Rockin Tabs
Are you looking for a site that has rock guitar tabs? Then Rockintabs.com is the place for you. It is a budding site with many rock guitar tabs. Submit your tab today.
Tab Gallery
Tab Gallery has a compilation of christian, rock, and country tabs all in one place. Come visit us.