Guitar Tabs
song title    band name

Join Us Today!

Don't strum alone...
be a part of the largest online Christian music community. Browse thousands of guitar tabs and chat w/ musicians like yourself.


It's Free!

This tab has been rated a 4.00 out of 5 for accuracy. (2 votes)Sorry, but you must be logged in to rate this tab.
Click here to log-in, or you can click here to register.
(Registration is free)

All songs owned by corresponding publishing company. If you make copies of any song on this website, be sure to report your usage to CCLI.
Submitted by: amrockingforgod

you right av got the intro to this and the solo see what you think

------------------------- 
---9----7----9-----7------ 
----------------------7---- 
---------------------------
-------------------------- 
-------------------------
thats the main strings you will work out the pluking patterns if you play with the song

solo

--------------------------------------------------
--12-12-12--8--8--10--8--7--8--10--12-13--15--(17)----
--------------------------------------------------
--------------------------------------------------
--------------------------------------------------
----------------------------- --------------------
the second time round tho ends with which av put in brackets hope you like it

Comments about this tab

markthepark1 - 2008-01-04

im lovin the solo. i think the start may sound better like this
---------------------------
---------------------------
--9---7---9----7-----2------0-
---------------------------
---------------------------
--------------------------


Add a comment/correction

Complimentary Christian Ringtones
Dadamobile and CGR have teamed up to bring your favorite Christian artists right to your phone. Sign up today and get 10 complementary ringtones!
Tab Country
Did you know CGR has a sister site w/ country guitar tabs? Well we do! Its called Tab Country. It has a great archive with a lot of country tabs.
Rockin Tabs
Are you looking for a site that has rock guitar tabs? Then Rockintabs.com is the place for you. It is a budding site with many rock guitar tabs. Submit your tab today.
Tab Gallery
Tab Gallery has a compilation of christian, rock, and country tabs all in one place. Come visit us.