Guitar Tabs
song title    band name

Join Us Today!

Don't strum alone...
be a part of the largest online Christian music community. Browse thousands of guitar tabs and chat w/ musicians like yourself.


It's Free!

This tab has been rated a 5.00 out of 5 for accuracy. (3 votes)Sorry, but you must be logged in to rate this tab.
Click here to log-in, or you can click here to register.
(Registration is free)

All songs owned by corresponding publishing company. If you make copies of any song on this website, be sure to report your usage to CCLI.
Submitted by: Adam K

Sincerely, Ichabod-Project 86
Copyright  2005 Tooth and Nail Records
Drop C# Tuning C#-G#-C#-F#-A#-D#

P.M.=....etc.
b=bend
sd=slide down

Intro
C#[----0/0/0----0/0/0----0/0/0----0/0/0-]
G#[----0/0/0----0/0/0-8--0/0/0----0/0/0-]
C#[----0/0/0----0/0/0-5--0/0/0----0/0/0-]
       .....    .....    .....    .....
Then
(x8)=play 8 times
A#[-10(x8)-10(x8)-10(x8)-10(x8)--]
F#[-12(x8)-11(x8)-10(x8)--9(x8)--]

A#[-10(x8)-10(x8)-10(x8)-10b(x8)--]
F#[-12(x8)-11(x8)-10(x8)--9b(x8)--]

Verse 1
C#[----0/0/0----0/0/0--7-0/0/0----0/0/0-]
G#[----0/0/0----0/0/0-10-0/0/0----0/0/0-]
C#[----0/0/0----0/0/0----0/0/0----0/0/0-]
       .....    .....    .....    .....
Then
C#[-10-5-8-3-6/6----------------------------------10-5-8-3-6/6-]
G#[--8-3-6-1-4/4-----------------------------------8-3-6-1-4/4-]
C#[-10-5-8-3-6/6--0/0/0/0/0/0/3/0/3/0/0/0/0/0/0/0-10-5-8-3-6/6-]

G#[------------------------------------------------------------------]
C#[-0/0/0/0/0/0/3/0/3/0/0/0/0/0/0/0-0/0/0/0/0/0/3/0/3/0/0/0/0/0/0/0--]
Then
C#[-10sd--10/7-13sd----0/0/0----0/0/0----0/0/0--]
G#[--8sd---8/5-11sd----0/0/0----0/0/0----0/0/0--]
C#[-10sd--10/7-13sd----0/0/0----0/0/0----0/0/0--]
                       .....    .....    .....
Then
C#[-10-5-8-3-6/6----------------------------------10-5-8-3-6/6-]
G#[--8-3-6-1-4/4-----------------------------------8-3-6-1-4/4-]
C#[-10-5-8-3-6/6--0/0/0/0/0/0/3/0/3/0/0/0/0/0/0/0-10-5-8-3-6/6-]

G#[------------------------------------------------------------------]
C#[-0/0/0/0/0/0/3/0/3/0/0/0/0/0/0/0-0/0/0/0/0/0/3/0/3/0/0/0/0/0/0/0x-]
Stop.Then Piano.

Chorus
C#[-------6-0/0--0/0-0--0/0-0/0/0----0/0--0/0-0--0/0-0/0/0-]
G#[-------4-0/0--0/0-0--0/0-0/0/0----0/0--0/0-0--0/0-0/0/0-]
C#[-0/3/5/6-0/0--0/0-0--0/0-0/0/0-6b-0/0--0/0-0--0/0-0/0/0-]

C#[----0/0--0/0-0--0/0-0/0/0----0/0--0/0-0--0/0-0/0/0-]
G#[----0/0--0/0-0--0/0-0/0/0----0/0--0/0-0--0/0-0/0/0-]
C#[-3b-0/0--0/0-0--0/0-0/0/0-6b-0/0--0/0-0--0/0-0/0/0-]

Repeat Chorus

Post-Chorus
C#[-10sd--10/7-13sd--7/7/7/7/7/7/7-]
G#[--8sd---8/5-11sd--5/5/5/5/5/5/5-]
C#[-10sd--10/7-13sd--7/7/7/7/7/7/7-]

Verse 2
(x8)=play 8 times
A#[-10(x8)-10(x8)-10(x8)-10(x8)--]
F#[-12(x8)-11(x8)-10(x8)--9(x8)--]x4
Then
C#[-10-5-8-3-6/6----------------------------------10-5-8-3-6/6-]
G#[--8-3-6-1-4/4-----------------------------------8-3-6-1-4/4-]
C#[-10-5-8-3-6/6----------------------------------10-5-8-3-6/6-]

G#[------------------------------------------------------------------]
C#[-0/0/0/0/0/0/3/0/3/0/0/0/0/0/0/0-0/0/0/0/0/0/3/0/3/0/0/0/0/0/0/0x-]
Stop. Piano.

Chorus

Post-Chorus 2
C#[-------6--3-5-0----6--3-5-0----6--3-5-0----6--3-5-0-]
G#[-------4--1-3-0----4--1-3-0----4--1-3-0----4--1-3-0-]
C#[-0/3/5/6--3-5-0----6--3-5-0----6--3-5-0----6--3-5-0-]

F#[-------------------------7/7/7/7/7/7bbbbbb--]
C#[-0/0/0/0/0/0/0/0/0/0/0/0-x/x/x/x/x/xbbbbbb--]
G#[-0/0/0/0/0/0/0/0/0/0/0/0-5/5/5/5/5/5bbbbbb--]
C#[-0/0/0/0/0/0/0/0/0/0/0/0--------------------]
    ...........................
Bridge
A#[-11/11/11/11/11/11/11/11/11/11/11/11/11/11/11/11b-------------------------]
F#[-14/14/14/14/14/14/14/14/15/15/15/15/15/15/15/15b-------------------------]
C#[--------------------------------------------------0/0/0-0/0/0-0/0/0-0/0/0-]
G#[--------------------------------------------------0/0/0-0/0/0-0/0/0-0/0/0-]
C#[--------------------------------------------------0/0/0-0/0/0-0/0/0-0/0/0-]
play x3
Then
C#[-0/0/0-0/0/0-0/0/0-0/0/0-]
G#[-0/0/0-0/0/0-0/0/0-0/0/0-]
C#[-0/0/0-0/0/0-0/0/0-0/0/0-]
Then in the backround
C#[-0/0/0-0/0/0-0/0/0-0/0/0-]
G#[-0/0/0-0/0/0-0/0/0-0/0/0-]
C#[-0/0/0-0/0/0-0/0/0-0/0/0-]

Interlude
C#[-------6-0/0--0/0-0--0/0-0/0/0----0/0--0/0-0--0/0-0/0/0-]
G#[-------4-0/0--0/0-0--0/0-0/0/0----0/0--0/0-0--0/0-0/0/0-]
C#[-0/3/5/6-0/0--0/0-0--0/0-0/0/0-6b-0/0--0/0-0--0/0-0/0/0-]

C#[----0/0--0/0-0--0/0-0/0/0----0/0--0/0-0--0/0-0/0/0-]
G#[----0/0--0/0-0--0/0-0/0/0----0/0--0/0-0--0/0-0/0/0-]
C#[-3b-0/0--0/0-0--0/0-0/0/0-6b-0/0--0/0-0--0/0-0/0/0-]

Chorus 2
C#[-------6-0/0--0/0-0--0/0-0/0/0----0/0--0/0-0--0/0-0/0/0-]
G#[-------4-0/0--0/0-0--0/0-0/0/0----0/0--0/0-0--0/0-0/0/0-]
C#[-0/3/5/6-0/0--0/0-0--0/0-0/0/0-6b-0/0--0/0-0--0/0-0/0/0-]

C#[----0/0--0/0-0--0/0-0/0/0----0/0--0/0-0--0/0-]
G#[----0/0--0/0-0--0/0-0/0/0----0/0--0/0-0--0/0-]
C#[-3b-0/0--0/0-0--0/0-0/0/0-6b-0/0--0/0-0--0/0-]


Tabbed by Adam K

Comments about this tab

jayemm87 - 2006-02-28

I'll have to try this out, its a good song and I am glad you tabbed it. If any of you that look at this tab don't have the cd go and get it right now because it is awesome!!!


akaukal - 2006-03-29

good tab but its really messy....


Dani_Boy - 2006-04-20

Yeah, it's messy. Those / symbols you use to separate the notes actually brings more confusion than it makes things clear. I could probably appreciate your tabs more if they were not so messy.


Dani_Boy - 2006-04-20

By the way, you do really well until verse 1 starts. Then it gets a little bit off. I haven't chacked it any further, so that's all I can say for now. Good, but messy and the first verse is a bit off.


akaukal - 2006-04-30

another thing, when you tab out the string names, do all of them, not just the ones that are being used. this can bring confusion to people not familiar with the key of C#.


Adam K - 2006-06-17

Verse 1 sounds kinda off because the bass plays something very different.


nbfan - 2006-11-18

Adam K, the bass is doing something completely different on this song.

To the tabber, this is a good tab, but took me a while to figure it out. Plus my G string broke.


Add a comment/correction

Complimentary Christian Ringtones
Dadamobile and CGR have teamed up to bring your favorite Christian artists right to your phone. Sign up today and get 10 complementary ringtones!
Tab Country
Did you know CGR has a sister site w/ country guitar tabs? Well we do! Its called Tab Country. It has a great archive with a lot of country tabs.
Rockin Tabs
Are you looking for a site that has rock guitar tabs? Then Rockintabs.com is the place for you. It is a budding site with many rock guitar tabs. Submit your tab today.
Tab Gallery
Tab Gallery has a compilation of christian, rock, and country tabs all in one place. Come visit us.