Guitar Tabs
song title    band name

Join Us Today!

Don't strum alone...
be a part of the largest online Christian music community. Browse thousands of guitar tabs and chat w/ musicians like yourself.


It's Free!

This tab has been rated a 5.00 out of 5 for accuracy. (3 votes)Sorry, but you must be logged in to rate this tab.
Click here to log-in, or you can click here to register.
(Registration is free)

All songs owned by corresponding publishing company. If you make copies of any song on this website, be sure to report your usage to CCLI.
Submitted by: Calmedtron

Verse 
E Bsus A2
E Bsus A2

Pre Chorus
A2 Bsus
A/C# Bsus

Chorus 
E E/D# A2
E E/D# A2

Bridge
E E/D# A2
E E/D# A2

Chords
   E   E/D#  A2 A/C# Bsus
e--0----0----0----0----0----
B--0----0----0----2----0----
G--9----8----2----2----4----
D--9----9----2----2----4----
A--7----7----0----4----2----
E--0----0----0----0----0----

Comments about this tab

Blazer77 - 2006-02-26

These chords are correct but to match the CD you will need to capo the second fret and leave the low E string open (put the capo on upside down-Charlie does this a lot).
This will change the chord shapes to as follows:
Capo II
Chords
E E/D# A2 A/C# Bsus
(D2) (D/C#) (G) (G/B) (A)
e--0-----0-----0-----3-----0----
B--3-----3-----3-----3-----2(3)-
G--2-----2-----0-----0-----2----
D--0-----0-----0-----0-----2----
A--0-----4-----0-----2-----0----
E--0-----0-----3-----0-----0----

Here is the intro tab:
Capo II
E E/D# A2
(D2) (D/C#) (G)
e-------------0------------------------0---------------0-------------------2----
B----------3-----3------------------3----------------3---3---------------3---3--
G-------2-----------2-------------2----------------0-------0-----------0-------0
D----0----------------(0)------0-----------------0-----------(0)-----0----------
A---------------------------4---------------------------------------------------
E-0-------------------------------------------3--------------------3------------

After the intro you roll into the verse:

Verse:
D A G

Pre-chorus:
G A
G/B A

Chorus:
D D/C# G

Tag:
D D/C# G

Tag riff:
E E/D# A2
(D2) 2x (D/C#) 2x (G) 4x
e-----------5--------------5--------5
B--------3--------------3--------3---
G-----2--------------2--------0------
D--0---------------------------------
A-----------------4------------------
E------------------------------------

Awesome song!


Blazer77 - 2006-02-26

Well the chords didn't line up exacly right...but you can figure it out.

blazer77


Blazer77 - 2006-02-27

Me again...I'm noticing that the tab gets pretty messed up when viewed in IE, I guess since I used firefox to type it. So use Firefox for the best viewing.


consumed4God32 - 2008-03-01

i love this song!! God is awesome!


Add a comment/correction

Complimentary Christian Ringtones
Dadamobile and CGR have teamed up to bring your favorite Christian artists right to your phone. Sign up today and get 10 complementary ringtones!
Tab Country
Did you know CGR has a sister site w/ country guitar tabs? Well we do! Its called Tab Country. It has a great archive with a lot of country tabs.
Rockin Tabs
Are you looking for a site that has rock guitar tabs? Then Rockintabs.com is the place for you. It is a budding site with many rock guitar tabs. Submit your tab today.
Tab Gallery
Tab Gallery has a compilation of christian, rock, and country tabs all in one place. Come visit us.