Guitar Tabs
song title    band name

Join Us Today!

Don't strum alone...
be a part of the largest online Christian music community. Browse thousands of guitar tabs and chat w/ musicians like yourself.


It's Free!

This tab has been rated a 5.00 out of 5 for accuracy. (1 vote)Sorry, but you must be logged in to rate this tab.
Click here to log-in, or you can click here to register.
(Registration is free)

All songs owned by corresponding publishing company. If you make copies of any song on this website, be sure to report your usage to CCLI.
Submitted by: pickfast89

Me and the praise and worship band in my youth group is learning this song
and i thought that i'd put this on the site so that everyone who wanted to
learn this song could. I think the song is played in drop c, but if you
want to place this in standard you can follow the chords. Or you can drop
everything two frets if you play in drop d. However you'll have to play 
the Db as a power chord. Please let me know what you yhink of this tab. I
hope this tab helps, God Bless!

tune to drop C
D
A
F
C
G
C

There are two guitars in this song(first-distorted)(second-clean)
If you want to, the second guitar could be tuned to standard tuning

intro:
Bass plays(or if you want, you can play guitar for it)

Db to E (8xs)

The first & second guitar starts to come in on the 4th time playing the intro
The second guitar just plays chords

second intro:
D|---------14-------------------------14-----------|
A|---------14-------------------------14-----------|
F|---------16b----------6-66----------16b----------|
C|-666666-------666666--6-66--666666-------9-1--8--|     Play 2xs
G|-666666-------666666--4-44--666666-------9-1--8--|
C|-666666-------666666--------666666-------9-1--8--|
     Gb     B     Gb    B      Gb     B   A Db A

Verse1:
Both guitats play this but one of them needs an echoing sound effect
D|---|        D|---|
A|---|        A|-9-|
F|---|   or   F|-8-|
C|-6-|        C|-6-|
G|-6-|        G|-6-|
C|-6-|        C|-6-|
   Gb            Gb

prechorus:
D|--------------|        D|-------------|
A|--------------|        A|-------------|
F|--------------|   or   F|----3--5--8--|
C|-6--8--10-11--|        C|-6--3--5--8--|
G|-6--8--10-11--|        G|-6--1--3--6--|
C|-6--8--10-11--|        C|-6-----------|
   Gb Ab Bb Db              Gb Ab Bb Db

While one guitar plays these chords
The other guitar plays this lick
A|-9~-11~-13~-16~--|

Then right at the end
D|-------|
A|-------|
F|-------|
C|-6-6--|
G|-6-6--|
C|-6-6--|
   Gb

chorus:
The distorted guitar plays this
D|------------------------------------|
A|------------------------------------|
F|------------------------------------|
C|-6--13-11--9--11-9--6--13-11-11-11--|
G|-6--13-11--9--11-9--6--13-11-11-11--|
C|-6--13-11--9--11-9--6--13-11-11-11--|
   Gb Db Bb  Ab Bb  Ab Gb Db Bb Bb Bb

D|-------------------------------------------|
A|-------------------------------------------|
F|-------------------------------------------|
C|-6--13-11--9--11-9--6->9-9-9--11-11-11-11--|
G|-6--13-11--9--11-9--6->9-9-9--11-11-11-11--|
C|-6--13-11--9--11-9--6->9-9-9--11-11-11-11--|
   Gb Db Bb  Ab Bb Ab Gb Ab     Bb

The second guitar has the option of playing this(clean or distorted)
D|------------------------------------|
A|----8--6--4--6--4------8--6--4-4-4--|
F|----8--6--4--6--4------8--6--4-4-4--|
C|-6--8--6--4--6--4---6--8--6--4-4-4--|
G|-6--6--4--4--4--4---6--6--4--4-4-4--|
C|-6------------------6---------------|
   Gb Db Bb Ab Bb Ab  Gb Db Bb Ab

D|---------------------------------------|
A|----8--6--4--6--4---1>-4-4-4--6-6-6-6--|
F|----8--6--4--6--4---1>-4-4-4--6-6-6-6--|
C|-6--8--6--4--6--4---1>-4-4-4--6-6-6-6--|
G|-6--6--4--4--4--4---1>-4-4-4--4-4-4-4--|
C|-6--------------4----------------------|
   Gb Db Bb Ab Bb Ab  Gb Ab     Bb

interlude:
The distorted guitar plays this
The second guitar just plays chords
D|---------14-------------------------14-----------|
A|---------14-------------------------14-----------|
F|---------16b----------6-66----------16b----------|
C|-666666-------666666--6-66--666666-------9-1--8--|     Play 2xs
G|-666666-------666666--4-44--666666-------9-1--8--|
C|-666666-------666666--------666666-------9-1--8--|
     Gb     B     Gb    B      Gb     B   A Db A

verse2:
Both guitats play this but one of them needs an echoing sound effect
D|---|        D|---|
A|---|        A|-9-|
F|---|   or   F|-8-|
C|-6-|        C|-6-|
G|-6-|        G|-6-|
C|-6-|        C|-6-|
   Gb            Gb

prechorus:
D|--------------|        D|-------------|
A|--------------|        A|-------------|
F|--------------|   or   F|----3--5--8--|
C|-6--8--10-11--|        C|-6--3--5--8--|
G|-6--8--10-11--|        G|-6--1--3--6--|
C|-6--8--10-11--|        C|-6-----------|
   Gb Ab Bb Db              Gb Ab Bb Db

While one guitar plays these chords
The other guitar plays this lick
A|-9~-11~-13~-16~--|

Then right at the end
D|-------|
A|-------|
F|-------|
C|-6-6--|
G|-6-6--|
C|-6-6--|
   Gb

chorus:
The distorted guitar plays this
D|------------------------------------|
A|------------------------------------|
F|------------------------------------|
C|-6--13-11--9--11-9--6--13-11-11-11--|
G|-6--13-11--9--11-9--6--13-11-11-11--|
C|-6--13-11--9--11-9--6--13-11-11-11--|
   Gb Db Bb  Ab Bb  Ab Gb Db Bb Bb Bb

D|-------------------------------------------|
A|-------------------------------------------|
F|-------------------------------------------|
C|-6--13-11--9--11-9--6->9-9-9--11-11-11-11--|
G|-6--13-11--9--11-9--6->9-9-9--11-11-11-11--|
C|-6--13-11--9--11-9--6->9-9-9--11-11-11-11--|
   Gb Db Bb  Ab Bb Ab Gb Ab     Bb

The second guitar has the option of playing this(clean or distorted)
D|------------------------------------|
A|----8--6--4--6--4------8--6--4-4-4--|
F|----8--6--4--6--4------8--6--4-4-4--|
C|-6--8--6--4--6--4---6--8--6--4-4-4--|
G|-6--6--4--4--4--4---6--6--4--4-4-4--|
C|-6------------------6---------------|
   Gb Db Bb Ab Bb Ab  Gb Db Bb Ab

D|---------------------------------------|
A|----8--6--4--6--4---1>-4-4-4--6-6-6-6--|
F|----8--6--4--6--4---1>-4-4-4--6-6-6-6--|
C|-6--8--6--4--6--4---1>-4-4-4--6-6-6-6--|
G|-6--6--4--4--4--4---1>-4-4-4--4-4-4-4--|
C|-6--------------4----------------------|
   Gb Db Bb Ab Bb Ab  Gb Ab     Bb

Then just hold Gb four a few beats and stop
The drums keep playing while the bass plays something
Listen to the CD to get the timing down

verse3/ending:
This is the end of the song
The first guitar plays this while the second plays the chords
D|-----------------------------------------------------|
A|-----------------------------------------------------|
F|-----------------------------------------------------|
C|---------6-6----------6-6----------6-6----------6-6--|
G|---------6-6----------6-6----------6-6----------6-6--|
C|-6-6-6-6-6-6--6-6-6-6-6-6--6-6-6-6-6-6--6-6-6-6-6-6--|
   Gb->

Here's the chords for those who can't read tab
intro:
Gb B Gb B Gb B Ab Db Ab (2xs)

verse1:
Gb

prechorus:
Gb Ab Bb Db (2xs)
Gb

chorus:
Gb Db Bb Ab Bb Ab
Gb Db Bb Bb Bb
Gb Db Bb Ab Bb Ab 
Gb Ab Bb

interlude:
Gb B Gb B Gb B Ab Db Ab (2xs)

verse2:
Gb

prechorus:
Gb Ab Bb Db (2xs)
Gb

chorus:
Gb Db Bb Ab Bb Ab
Gb Db Bb Bb Bb
Gb Db Bb Ab Bb Ab 
Gb Ab Bb

verse3/ending:
Gb

If you want this in standard or drop d, i'll try to type it up later

Comments about this tab

itcha2 - 2006-12-17

hey..
you mentioned that your youth group play this, i was just wondering how it sounded when you did and what instruments there are...

if u have a copy of this with the word and chords would u be able to email them to me at:
itcha2@hotmail.com

thanks...good tab by the way...
Sarah


Add a comment/correction

Complimentary Christian Ringtones
Dadamobile and CGR have teamed up to bring your favorite Christian artists right to your phone. Sign up today and get 10 complementary ringtones!
Tab Country
Did you know CGR has a sister site w/ country guitar tabs? Well we do! Its called Tab Country. It has a great archive with a lot of country tabs.
Rockin Tabs
Are you looking for a site that has rock guitar tabs? Then Rockintabs.com is the place for you. It is a budding site with many rock guitar tabs. Submit your tab today.
Tab Gallery
Tab Gallery has a compilation of christian, rock, and country tabs all in one place. Come visit us.