Guitar Tabs
song title    band name

Join Us Today!

Don't strum alone...
be a part of the largest online Christian music community. Browse thousands of guitar tabs and chat w/ musicians like yourself.


It's Free!

This tab has been rated a 5.00 out of 5 for accuracy. (1 vote)Sorry, but you must be logged in to rate this tab.
Click here to log-in, or you can click here to register.
(Registration is free)

All songs owned by corresponding publishing company. If you make copies of any song on this website, be sure to report your usage to CCLI.
Submitted by: powell1993

this is 100% correct, trust me

tuning: drop d(D,a,d,g,b,e)

intro  2X:
e[--------------------------------]
b[--------------------------------]
g[--2-3-2--2-3-2--2-3-2-2---------]
d[0--0---0--0---00-0---0-0-0-0-3-3] 
a[-----------------------------3-3]
D[-----------------------------3-3]

verse1  4X:
e[----------------------------]
b[----------------------------]
g[--2-3-2--2-3-2--2-3-2--2-3-2]
d[0--0------0------0------0---]
a[-------3------1------0------]
D[----------------------------]

chorus1  1X:
e[--------------------------------------------]
b[--------------------------------------------]
g[--------------------------------------------]
d[0-xx-3/5-5--10-10--8-8--0-xx-3/5-5--8-8--7-7]
a[0-xx-3/5-5--10-10--8-8--0-xx-3/5-5--8-8--7-7]
D[0-xx-3/5-5--10-10--8-8--0-xx-3/5-5--8-8--7-7]

chorus1(continued)
e[----------------------------------------]
b[----------------------------------------]
g[----------------------------------------]
d[0-xx-3/5-5--10-10--8-8--7-xx-7-xx-3x-5xx]
a[0-xx-3/5-5--10-10--8-8--7-xx-7-xx-3x-5xx]
D[0-xx-3/5-5--10-10--8-8--7-xx-7-xx-3x-5xx]

verse2: same as verse1

chorus2: same as chorus1 except play it 2 times

bridge:  2x
e[---------------------------------------------------]
b[---------------------------------------------------]
g[--------9---------9-----9---------9---------9-----9]
d[--------7---------7-----7---------7---------7-----7]
a[--------8---------8-----8---------8---------8-----8]
D[0-0-0-0---0-0-0-0---0-0---0-0-0-0---0-0-0-0---0-0--]

bridge (continued)
e[---------------------------------------------------]
b[---------------------------------------------------]
g[---------------------------------------------------]
d[--------7---------7-----7---------7-----7-6-3-6-3-2]
a[--------8---------8-----8---------8-----7-6-3-6-3-2]
D[0-0-0-0---0-0-0-0---0-0---0-0-0-0---0-0-7-6-3-6-3-2]

chorus3: 2

end of chorus3:
e[---------------
b[---------------
g[---------------
d[7-xx-7xx-3x-5xx
a[7-xx-7xx-3x-5xx
D[7-xx-7xx-3x-5xx

Please comment and rate

God bless



Comments about this tab

matix1993 - 2006-03-21

awesome tab, only chorus:

d0-x-x-3/5-5-10-10-8-8-0-x-x-3/5-5-8-8-7-7-0-x-x-3/5-5-10-10-8-8-7~~3-x-5-x
a0-x-x-3/5-5-10-10-8-8-0-x-x-3/5-5-8-8-7-7-0-x-x-3/5-5-10-10-8-8-7~~3-x-5-x
D0-x-x-3/5-5-10-10-8-8-0-x-x-3/5-5-8-8-7-7-0-x-x-3/5-5-10-10-8-8-7~~3-x-5-x


panhead9119 - 2008-03-08

not bad, not bad just one comment

WHERE'S THE AWESOME GUITAR SOLO!!!!!!!!!!!!!!!!!

just throughin' it out there


DiscipleRawks - 2008-10-04

i almost had the solo figued out at one point in time but i completely forgot it now. maybe i'll take a shot at it again


Add a comment/correction

Complimentary Christian Ringtones
Dadamobile and CGR have teamed up to bring your favorite Christian artists right to your phone. Sign up today and get 10 complementary ringtones!
Tab Country
Did you know CGR has a sister site w/ country guitar tabs? Well we do! Its called Tab Country. It has a great archive with a lot of country tabs.
Rockin Tabs
Are you looking for a site that has rock guitar tabs? Then Rockintabs.com is the place for you. It is a budding site with many rock guitar tabs. Submit your tab today.
Tab Gallery
Tab Gallery has a compilation of christian, rock, and country tabs all in one place. Come visit us.