Guitar Tabs
song title    band name

Join Us Today!

Don't strum alone...
be a part of the largest online Christian music community. Browse thousands of guitar tabs and chat w/ musicians like yourself.


It's Free!

This tab has been rated a 5.00 out of 5 for accuracy. (2 votes)Sorry, but you must be logged in to rate this tab.
Click here to log-in, or you can click here to register.
(Registration is free)

All songs owned by corresponding publishing company. If you make copies of any song on this website, be sure to report your usage to CCLI.
Submitted by: thanksliving

Here is this song with Tab and Chorus the chords are slightly different than
those already posted but it sounds good.

All chords and tab indicative of capo on 3rd Fret

Play for Intro/Verse

It is easiest to play with a pick picking back and forth instead of finger
picking

E---0-0-0-0-0-0-0-0-0-0-0-0-0-0-0-0-0-0-0-0-0-0-0-0-0-0-0-0-0-0-0-0-0-0-0-l
B--3-3-3-3-3-3-3-3-0-------------------3-3-3-3-3-3-3-3-0------------------l
G--------------------5-5-5-5-5-5-5-5-0-------------------5-5-5-5-5-5-5-5-0l
D-------------------------------------------------------------------------l
A-------------------------------------------------------------------------l
E-------------------------------------------------------------------------l

Verse 1:

Verse 2:

Go into chorus with the following chords

G   
D/F#      
Am7    
C


G     
D/F#    
Am7     
C        

Back to verse 1 tab

Verse 3:
E---0-0-0-0-0-0-0-0-0-0-0-0-0-0-0-0-0-0-0-0-0-0-0-0-0-0-0-0-0-0-0-0-0-0-0-l
B--3-3-3-3-3-3-3-3-0-------------------3-3-3-3-3-3-3-3-0------------------l
G--------------------5-5-5-5-5-5-5-5-0-------------------5-5-5-5-5-5-5-5-0l
D-------------------------------------------------------------------------l
A-------------------------------------------------------------------------l
E-------------------------------------------------------------------------l

Chorus
G  
D/F#   
Am7     
C


G  
D/F#                   
Am7     
C        

Back to verse 3 tab


Bridge
E---0-0-0-0-0-0-0-0-0-0-0-0-0-0-0-0-0-0-0-0-0-0-0-0-0-0-0-0-0-0-0-0-0-0-0-l
B--3-3-3-3-3-3-3-3-0-------------------3-3-3-3-3-3-3-3-0------------------l
G--------------------5-5-5-5-5-5-5-5-0-------------------5-5-5-5-5-5-5-5-0l
D-------------------------------------------------------------------------l
A-------------------------------------------------------------------------l
E-------------------------------------------------------------------------l

Follow tab through Bridge to End

The chords are a little different than normal.  Here they are:

   G     D/F#     Am7     C   
EADGBE  EADGBE  EADGBE  EADGBE
32XX3X  2XX23X  XX2X1X  X32X1X


Have fun praising the Lord!

Comments about this tab

jamforjesus23 - 2006-05-08

sounds pretty good... to me at least...


Add a comment/correction

Complimentary Christian Ringtones
Dadamobile and CGR have teamed up to bring your favorite Christian artists right to your phone. Sign up today and get 10 complementary ringtones!
Tab Country
Did you know CGR has a sister site w/ country guitar tabs? Well we do! Its called Tab Country. It has a great archive with a lot of country tabs.
Rockin Tabs
Are you looking for a site that has rock guitar tabs? Then Rockintabs.com is the place for you. It is a budding site with many rock guitar tabs. Submit your tab today.
Tab Gallery
Tab Gallery has a compilation of christian, rock, and country tabs all in one place. Come visit us.