Guitar Tabs
song title    band name

Join Us Today!

Don't strum alone...
be a part of the largest online Christian music community. Browse thousands of guitar tabs and chat w/ musicians like yourself.


It's Free!

This tab has been rated a 2.00 out of 5 for accuracy. (1 vote)Sorry, but you must be logged in to rate this tab.
Click here to log-in, or you can click here to register.
(Registration is free)

All songs owned by corresponding publishing company. If you make copies of any song on this website, be sure to report your usage to CCLI.
Submitted by: adsmith

#----------------------------------PLEASE NOTE--------------------------------#
#This file is the author's own work and represents their interpretation of the#
#song. You may only use this file for private study, scholarship, or research.#
#-----------------------------------------------------------------------------#
#-- File created with Instab - http://www.pconline.com/~smcarey/instab.html --#
#-----------------------------------------------------------------------------#

Author/Artist: Kutless
Title: Treason
Album: Sea of Faces
Transcribed by: Aaron
tune to drop D then tune down 1/2 step
so tune to Db

----------------------------------------------|-------------------------------
----------------------------------------------|-------------------------------
----------------------------------------------|-------------------------------
-0-4-xx--7v-0-4-xx--7v-0-4-xx-7v-0-4-xx-2-4-2-|-0-4-xx--7v-0-4-xx--7v-0-4-xx--
-0-4-xx-----0-4-xx-----0-4-xx----0-4-xx-2-4-2-|-0-4-xx-----0-4-xx-----0-4-xx--
-0-4-xx-----0-4-xx-----0-4-xx----0-4-xx-2-4-2-|-0-4-xx-----0-4-xx-----0-4-xx--
                                                                              

-------------------|----------------------------------------------------------
-------------------|----------------------------------------------------------
-------------------|----------------------------------------------------------
-7v-0-4-xx-2-4-2-0-|-4---3----0-4-xx--7v-0-4-xx--7v-0-4-xx--7v-0-4-xx-2-4-2---
----0-4-xx-2-4-2-0-|-2---0----0-4-xx-----0-4-xx-----0-4-xx-----0-4-xx-2-4-2---
----0-4-xx-2-4-2-0-|-2---0----0-4-xx-----0-4-xx-----0-4-xx-----0-4-xx-2-4-2---
                                                                              

---|----------------------------------------------------------|---------------
---|----------------------------------------------------------|---------------
---|----------------------------------------------------------|---------------
-0-|-4---3----0-4-xx--7v-0-4-xx--7v-0-4-xx--7v-0-4-xx-2-4-2-0-|-2---0---------
-0-|-2---0----0-4-xx-----0-4-xx-----0-4-xx-----0-4-xx-2-4-2-0-|-2---0---------
-0-|-2---0----0-4-xx-----0-4-xx-----0-4-xx-----0-4-xx-2-4-2-0-|-2---0---------
   hold out                                                  hold out till    

----------|-------------------------------------------------------------------
----------|-------------------------------------------------------------------
----------|-------------------------------------------------------------------
----------|--4--44-4-44--77--7-7-7--0-000-xx-0-0-xx-77-99-77-2-2-xx-22-44-4---
----------|--4--44-4-44--77--7-7-7--0-000-xx-0-0-xx----99----2-2-xx-22-44-4---
----------|--4--44-4-44--77--7-7-7--0-000-xx-0-0-xx----99----2-2-xx-22-44-4---
 chourse       CHORUS           Im not great with rythms so you want to       

---------------------------------------------------|--------------------------
---------------------------------------------------|--------------------------
---------------------------------------------------|--------------------------
-44--77--7-7-7--0-000-xx-0-0-xx-77-99-77-2-2-xx-22-|-0-4-xx-7v-0-4-xx-7v-0-4--
-44--77--7-7-7--0-000-xx-0-0-xx----99----2-2-xx-22-|-0-4-xx----0-4-xx----0-4--
-44--77--7-7-7--0-000-xx-0-0-xx----99----2-2-xx-22-|-0-4-xx----0-4-xx----0-4--
 check the song                                                               

------------------------------------------------------------------|-----------
------------------------------------------------------------------|-----------
------------------------------------------------------------------|-----------
-xx-7v-0-4-xx--2-4-2-0-4-xx-7v-0-4-xx-7v-0-4-xx-7v-0-4-xx-2-4-2-0-|-4-----3---
-xx----0-4-xx--2-4-2-0-4-xx----0-4-xx----0-4-xx----0-4-xx-2-4-2-0-|-2-----0---
-xx----0-4-xx--2-4-2-0-4-xx----0-4-xx----0-4-xx----0-4-xx-2-4-2-0-|-2-----0---
                                                                              

-----------------------------------------------|-----------|------------------
-----------------------------------------------|-----------|------------------
-----------------------------------------------|-----------|------------------
-0-4-xx--7v-0-4-xx-7v-0-4-xx-7v-0-4-xx-2-4-2-0-|-4-------3-|-0-4-xx-7v-0-4----
-0-4-xx-----0-4-xx----0-4-xx----0-4-xx-2-4-2-0-|-2-------0-|-0-4-xx----0-4----
-0-4-xx-----0-4-xx----0-4-xx----0-4-xx-2-4-2-0-|-2-------0-|-0-4-xx----0-4----
                                                                              

--------------------------------|----------|----------------------------------
--------------------------------|----------|----------------------------------
--------------------------------|----------|----------------------------------
-xx-7v-0-4-xx-7v-0-4-xx-2-4-2-0-|-2------0-|-4-44-4-44--77--7-7-7--0-000-xx---
-xx----0-4-xx----0-4-xx-2-4-2-0-|-2------0-|-4-44-4-44--77--7-7-7--0-000-xx---
-xx----0-4-xx----0-4-xx-2-4-2-0-|-2------0-|-4-44-4-44--77--7-7-7--0-000-xx---
                                              CHORUS                          

------------------------------------------------------------------------------
------------------------------------------------------------------------------
------------------------------------------------------------------------------
-0-0-xx-77-99-77-22-xx-22--44-4-44--77-7-7-7--0-000-xx-0-0-xx-77-99-77-22-xx--
-0-0-xx----99----22-xx-22--44-4-44--77-7-7-7--0-000-xx-0-0-xx----99----22-xx--
-0-0-xx----99----22-xx-22--44-4-44--77-7-7-7--0-000-xx-0-0-xx----99----22-xx--
                                                                              

------|-----------------------------------------------------------------------
------|-----------------------------------------------------------------------
------|------------------------------------------7---------7---------7--------
--2-2-|-4----0-4-----0-4----0-4----------4-45-4----4-45-4----4-45-4----77-22--
--2-2-|-4-54-0-4--54-0-4-54-0-4-54545454-4-45-4----4-45-4----4-45-4----77-22--
--2-2-|-4----0-4-----0-4----0-4----------4-45-4----4-45-4----4-45-4----77-22--
        BRIDGE                                                                

----------------------------------------|-------------------------------------
----------------------------------------|-------------------------------------
---------7---------7---------7----------|-------------------------------------
-4-45-4----4-45-4----4-45-4----99-xx-2x-|-4-44-4-44--77--7-7-7--0-000-xx-0-0--
-4-45-4----4-45-4----4-45-4----99-xx-2x-|-4-44-4-44--77--7-7-7--0-000-xx-0-0--
-4-45-4----4-45-4----4-45-4----99-xx-2x-|-4-44-4-44--77--7-7-7--0-000-xx-0-0--
                                          CHORUS                              

------------------------------------------------------------------------------
------------------------------------------------------------------------------
------------------------------------------------------------------------------
-xx-77-99-77-22-xx-22-44-4-44-77-7-7-7--0-000-xx-0-0-xx-77-99-77-22-xx-22-----
-xx----99----22-xx-22-44-4-44-77-7-7-7--0-000-xx-0-0-xx----99----22-xx-22-----
-xx----99----22-xx-22-44-4-44-77-7-7-7--0-000-xx-0-0-xx----99----22-xx-22-----
                                                                              

------------------------------------------------------------------------------
------------------------------------------------------------------------------
------------------------------------------------------------------------------
-4-4-4-4-4-44-4-44-77-7-7-7--0-000-xx-0-0-xx-77-99-77-22-xx-22-4-44-4-44--77--
-4-4-4-4-4-44-4-44-77-7-7-7--0-000-xx-0-0-xx----99----22-xx-22-4-44-4-44--77--
-4-4-4-4-4-44-4-44-77-7-7-7--0-000-xx-0-0-xx----99----22-xx-22-4-44-4-44--77--
                                                                              

------------------------------------------|-----------------------------------
------------------------------------------|-----------------------------------
------------------------------------------|-----------------------------------
-7-7-7--0-000-xx-0-0-xx-77-99-77-22-xx-22-|-0-4-xx-7v-0-4-xx-7v-0-4-xx-7v-0---
-7-7-7--0-000-xx-0-0-xx----99----22-xx-22-|-0-4-xx----0-4-xx----0-4-xx----0---
-7-7-7--0-000-xx-0-0-xx----99----22-xx-22-|-0-4-xx----0-4-xx----0-4-xx----0---
                                            Outro                             

------------------------------------------------------------------------------
------------------------------------------------------------------------------
------------------------------------------------------------------------------
-4-xx-2-4-2--0-4-xx-7v-0-4-xx-7v-0-4-xx-7v-0-4-xx-2-4-2-x--------------------
-4-xx-2-4-2--0-4-xx----0-4-xx----0-4-xx----0-4-xx-2-4-2-x--------------------
-4-xx-2-4-2--0-4-xx----0-4-xx----0-4-xx----0-4-xx-2-4-2-x--------------------
                                                                              


Comments about this tab

adsmith - 2006-05-14

Dude's and Dudetts (ladys, and jents) I meen come on this is more than a 2 i meen it ovious. Anyway continu to check it out and leave any comments so i can corect this cause i play it like this with a band. The vibrato on the 7th string on the intro may not be right. thanks for checking it out.


Add a comment/correction

Complimentary Christian Ringtones
Dadamobile and CGR have teamed up to bring your favorite Christian artists right to your phone. Sign up today and get 10 complementary ringtones!
Tab Country
Did you know CGR has a sister site w/ country guitar tabs? Well we do! Its called Tab Country. It has a great archive with a lot of country tabs.
Rockin Tabs
Are you looking for a site that has rock guitar tabs? Then Rockintabs.com is the place for you. It is a budding site with many rock guitar tabs. Submit your tab today.
Tab Gallery
Tab Gallery has a compilation of christian, rock, and country tabs all in one place. Come visit us.