Guitar Tabs
song title    band name

Join Us Today!

Don't strum alone...
be a part of the largest online Christian music community. Browse thousands of guitar tabs and chat w/ musicians like yourself.


It's Free!

This tab has been rated a 4.50 out of 5 for accuracy. (2 votes)Sorry, but you must be logged in to rate this tab.
Click here to log-in, or you can click here to register.
(Registration is free)

All songs owned by corresponding publishing company. If you make copies of any song on this website, be sure to report your usage to CCLI.
Submitted by: miky-kim070

the second entry on this song was really good.  i just changed some things 
that i thought could be modified.  my idea is based on it sooo... ya, 
im giving credit to that guy for a main idea.

this is the first guitar part, i might post the second one later
Drop D tuning

Verse:  X 2    come in around the middle of the song
e|-----------------------------------------------------------|
b|-----------------------------------------------------------|
g|-----------------------------------------------------------|
d|--8--------11--------6--------4----------------------------|
a|--8--------11--------6--------4----------------------------|
d|--8--------11--------6--------4----------------------------|
Chorus:
e|-----------------------------------------------------------|
b|-----------------------------------------------------------|
g|-----------------------------------------------------------|
d|--88---44---6-666864-88---44---6-666864-88-----------------|
a|--88---44---6-666864-88---44---6-666864-88-----------------|
d|--88---44---6-666864-88---44---6-666864-88-----------------|

e|-----------------------------------------------------------|
b|-----------------------------------------------------------|
g|-----------------------------------------------------------|
d|--88---44---1-111311-88---44---6-88810868------------------|
a|--88---44---1-111311-88---44---6-88810868------------------|
d|--88---44---1-111311-88---44---6-88810868------------------|
                                       ^ten's not 1's and zeros

ill come up with the rest later, look for my tabs if u like this one.  
this is my first tab

Comments about this tab

guitarcordfreak - 2006-04-19

aweome job!!! my first tab wasn't as good as this one!!!! Keep tabbing!!!!


Add a comment/correction

Complimentary Christian Ringtones
Dadamobile and CGR have teamed up to bring your favorite Christian artists right to your phone. Sign up today and get 10 complementary ringtones!
Tab Country
Did you know CGR has a sister site w/ country guitar tabs? Well we do! Its called Tab Country. It has a great archive with a lot of country tabs.
Rockin Tabs
Are you looking for a site that has rock guitar tabs? Then Rockintabs.com is the place for you. It is a budding site with many rock guitar tabs. Submit your tab today.
Tab Gallery
Tab Gallery has a compilation of christian, rock, and country tabs all in one place. Come visit us.