Guitar Tabs
song title    band name

Join Us Today!

Don't strum alone...
be a part of the largest online Christian music community. Browse thousands of guitar tabs and chat w/ musicians like yourself.


It's Free!

This tab has not yet been rated for accuracy.Sorry, but you must be logged in to rate this tab.
Click here to log-in, or you can click here to register.
(Registration is free)

All songs owned by corresponding publishing company. If you make copies of any song on this website, be sure to report your usage to CCLI.
Submitted by: svt93style

-------------------------------------------------------------------------------
			     Everything - Lifhouse
-------------------------------------------------------------------------------
Tabbed by: Micahel Renwick
Email: Mikegrenwick@hotmail.com
Tuning: Standard or 1/2 step down (he does this often)

Notes: ( ) = let ring

Intro: 

e|---------(0)-------------------(0)-----------------------------------------|
B|-------5------4----0-----0-------------0-----------------------------------|
G|-----6----------------6-----6-------6-----6--------------------------------| X 4
D|---------------------------------------------------------------------------|
A|--4-----------0------------------------------------------------------------|
E|-------------------5-------------------------------------------------------|

Verse: 1
     
       
e|---------(0)-------------------(0)-----------------------------------------|
B|-------5------4----0-----0-------------0-----------------------------------|
G|-----6----------------6-----6-------6-----6--------------------------------| 
D|---------------------------------------------------------------------------|
A|--4-----------0------------------------------------------------------------|
E|-------------------5-------------------------------------------------------|

    
e|---------(0)-------------------(0)-----------------------------------------|
B|-------5------4----0-----0-------------0-----------------------------------|
G|-----6----------------6-----6-------6-----6--------------------------------| 
D|---------------------------------------------------------------------------|
A|--4-----------0------------------------------------------------------------|
E|-------------------5-------------------------------------------------------|

     
e|---------(0)-------------------(0)-----------------------------------------|
B|-------5------4----0-----0-------------0-----------------------------------|
G|-----6----------------6-----6-------6-----6--------------------------------| 
D|---------------------------------------------------------------------------|
A|--4-----------0------------------------------------------------------------|
E|-------------------5-------------------------------------------------------|

e|---------(0)-------------------(0)-----------------------------------------|
B|-------5------4----0-----0-------------0-----------------------------------|
G|-----6----------------6-----6-------6-----6--------------------------------| 
D|---------------------------------------------------------------------------|
A|--4-----------0------------------------------------------------------------|
E|-------------------5-------------------------------------------------------|

e|---------(0)-------------------(0)-----------------------------------------|
B|-------5------4----0-----0-------------0-----------------------------------|
G|-----6----------------6-----6-------6-----6--------------------------------| 
D|---------------------------------------------------------------------------|
A|--4-----------0------------------------------------------------------------|
E|-------------------5-------------------------------------------------------|

e|---------(0)-------------------(0)-----------------------------------------|
B|-------5------4----0-----0-------------0-----------------------------------|
G|-----6----------------6-----6-------6-----6--------------------------------| 
D|---------------------------------------------------------------------------|
A|--4-----------0------------------------------------------------------------|
E|-------------------5-------------------------------------------------------|

e|---------(0)-------------------(0)-----------------------------------------|
B|-------5------4----0-----0-------------0-----------------------------------|
G|-----6----------------6-----6-------6-----6--------------------------------| 
D|---------------------------------------------------------------------------|
A|--4-----------0------------------------------------------------------------|
E|-------------------5-------------------------------------------------------|

e|---------(0)-------------------(0)-----------------------------------------|
B|-------5------4----0-----0-------------0-----------------------------------|
G|-----6----------------6-----6-------6-----6--------------------------------| 
D|---------------------------------------------------------------------------|
A|--4-----------0------------------------------------------------------------|
E|-------------------5-------------------------------------------------------|

  
The *0* is added here for a dramatic effect.  It sounds like the drums
that come in on the real track.  Make sure to pick all notes here 
louder than previous for the sound on the track.


e|---------(0)-------------------(0)-----------------------------------------|
B|-------5------4----0-----0-------------0-----------------------------------| 
G|-----6----------------6-----6-------6-----6--------------------------------|   
D|---------------------------------------------------------------------------| 
A|--4-----------0------------------------------------------------------------| 
E|-*0*---------------5-------------------------------------------------------| 


e|---------(0)-------------------(0)-----------------------------------------| 
B|-------5------4----0-----0-------------0-----------------------------------| 
G|-----6----------------6-----6-------6-----6--------------------------------|    
D|---------------------------------------------------------------------------| 
A|--4-----------0------------------------------------------------------------| 
E|-*0*---------------5-------------------------------------------------------|


Verse: 2

e|---------(0)-------------------(0)-----------------------------------------|
B|-------5------4----0-----0-------------0-----------------------------------|
G|-----6----------------6-----6-------6-----6--------------------------------| 
D|---------------------------------------------------------------------------|
A|--4-----------0------------------------------------------------------------|
E|-------------------5-------------------------------------------------------|

e|---------(0)-------------------(0)-----------------------------------------|
B|-------5------4----0-----0-------------0-----------------------------------|
G|-----6----------------6-----6-------6-----6--------------------------------| 
D|---------------------------------------------------------------------------|
A|--4-----------0------------------------------------------------------------|
E|-------------------5-------------------------------------------------------|

e|---------(0)-------------------(0)-----------------------------------------|
B|-------5------4----0-----0-------------0-----------------------------------|
G|-----6----------------6-----6-------6-----6--------------------------------| 
D|---------------------------------------------------------------------------|
A|--4-----------0------------------------------------------------------------|
E|-------------------5-------------------------------------------------------|

e|---------(0)-------------------(0)-----------------------------------------|
B|-------5------4----0-----0-------------0-----------------------------------|
G|-----6----------------6-----6-------6-----6--------------------------------| 
D|---------------------------------------------------------------------------|
A|--4-----------0------------------------------------------------------------|
E|-------------------5-------------------------------------------------------|

e|---------(0)-------------------(0)-----------------------------------------|
B|-------5------4----0-----0-------------0-----------------------------------|
G|-----6----------------6-----6-------6-----6--------------------------------| 
D|---------------------------------------------------------------------------|
A|--4-----------0------------------------------------------------------------|
E|-------------------5-------------------------------------------------------|

e|---------(0)-------------------(0)-----------------------------------------|
B|-------5------4----0-----0-------------0-----------------------------------|
G|-----6----------------6-----6-------6-----6--------------------------------| 
D|---------------------------------------------------------------------------|
A|--4-----------0------------------------------------------------------------|
E|-------------------5-------------------------------------------------------|

e|---------(0)-------------------(0)-----------------------------------------|
B|-------5------4----0-----0-------------0-----------------------------------|
G|-----6----------------6-----6-------6-----6--------------------------------| 
D|---------------------------------------------------------------------------|
A|--4-----------0------------------------------------------------------------|
E|-------------------5-------------------------------------------------------|

e|---------(0)-------------------(0)-----------------------------------------|
B|-------5------4----0-----0-------------0-----------------------------------|
G|-----6----------------6-----6-------6-----6--------------------------------| 
D|---------------------------------------------------------------------------|
A|--4-----------0------------------------------------------------------------|
E|-------------------5-------------------------------------------------------|



Chorus:

This is not the "real" chorus.  It is played on the 7th and 9th fret.
I cant really figure it out, but I think you would need two guitars
and the bass to make it sound right.  This is good just ad lib with these
chords.  If you want I can tab out what I do here.

Chords:  E..A2..C#m..A2

e|-------0---0---0---0-------------------------------------------------------| 
B|-------0---0---5---0-------------------------------------------------------|  
G|-------1---2---6---2-------------------------------------------------------| 
D|-------2---2---6---2-------------------------------------------------------|
A|-------2---0---4---0-------------------------------------------------------| 
E|-------0---x---x---x-------------------------------------------------------|


Alternate Chorus:

This is something I came up with.  It incorporates the bass notes like on the
track.  I feel it sound good.


e|---------(0)--------0----------(0)-----------------------------------------| 
B|-------5-------0--- 0-----0-------------0----------------------------------| 
G|-----6-------------*6*-6-----6-------6-----6-------------------------------| 
D|---------------------------------------------------------------------------|   										open and dont use
A|--4------------------------------------------------------------------------|   
E|-*0*-----------4----5------------------------------------------------------| 
									       



Verse: 3

e|---------(0)-------------------(0)-----------------------------------------|
B|-------5------4----0-----0-------------0-----------------------------------|
G|-----6----------------6-----6-------6-----6--------------------------------| 
D|---------------------------------------------------------------------------|
A|--4-----------0------------------------------------------------------------|
E|-------------------5-------------------------------------------------------|

e|---------(0)-------------------(0)-----------------------------------------|
B|-------5------4----0-----0-------------0-----------------------------------|
G|-----6----------------6-----6-------6-----6--------------------------------| 
D|---------------------------------------------------------------------------|
A|--4-----------0------------------------------------------------------------|
E|-------------------5-------------------------------------------------------|

e|---------(0)-------------------(0)-----------------------------------------|
B|-------5------4----0-----0-------------0-----------------------------------|
G|-----6----------------6-----6-------6-----6--------------------------------| 
D|---------------------------------------------------------------------------|
A|--4-----------0------------------------------------------------------------|
E|-------------------5-------------------------------------------------------|

e|---------(0)-------------------(0)-----------------------------------------|
B|-------5------4----0-----0-------------0-----------------------------------|
G|-----6----------------6-----6-------6-----6--------------------------------| 
D|---------------------------------------------------------------------------|
A|--4-----------0------------------------------------------------------------|
E|-------------------5-------------------------------------------------------|

e|---------(0)-------------------(0)-----------------------------------------|
B|-------5------4----0-----0-------------0-----------------------------------|
G|-----6----------------6-----6-------6-----6--------------------------------| 
D|---------------------------------------------------------------------------|
A|--4-----------0------------------------------------------------------------|
E|-------------------5-------------------------------------------------------|

e|---------(0)-------------------(0)-----------------------------------------|
B|-------5------4----0-----0-------------0-----------------------------------|
G|-----6----------------6-----6-------6-----6--------------------------------| 
D|---------------------------------------------------------------------------|
A|--4-----------0------------------------------------------------------------|
E|-------------------5-------------------------------------------------------|

e|---------(0)-------------------(0)-----------------------------------------|
B|-------5------4----0-----0-------------0-----------------------------------|
G|-----6----------------6-----6-------6-----6--------------------------------| 
D|---------------------------------------------------------------------------|
A|--4-----------0------------------------------------------------------------|
E|-------------------5-------------------------------------------------------|

e|---------(0)-------------------(0)-----------------------------------------|
B|-------5------4----0-----0-------------0-----------------------------------|
G|-----6----------------6-----6-------6-----6--------------------------------| 
D|---------------------------------------------------------------------------|
A|--4-----------0------------------------------------------------------------|
E|-------------------5-------------------------------------------------------|


Chorus:



Chords:  E..A2..C#m..A2

e|-------0---0---0---0-------------------------------------------------------|
B|-------0---0---5---0-------------------------------------------------------| 
G|-------1---2---6---2-------------------------------------------------------| 
D|-------2---2---6---2-------------------------------------------------------| 
A|-------2---0---4---0-------------------------------------------------------| 
E|-------0---x---x---x-------------------------------------------------------|


Alternate Chorus:



e|---------(0)--------0----------(0)-----------------------------------------| 
B|-------5-------0--- 0-----0-------------0----------------------------------| 
G|-----6-------------*6*-6-----6-------6-----6-------------------------------| 
D|---------------------------------------------------------------------------|  										open and dont use
A|--4------------------------------------------------------------------------|   
E|-*0*-----------4----5------------------------------------------------------| 



Bridge:

Chords: C#m..A2..E..B

e|-------0---0---0-----------------------------------------------------------| 
B|-------5---0---0-----------------------------------------------------------| 
G|-------6---2---1--4--------------------------------------------------------| 
D|-------6---2---2--4--------------------------------------------------------|
A|-------4---0---2--2--------------------------------------------------------|
E|-------x---x---0--0--------------------------------------------------------|


Chorus/Outro:

Chords:  E..A2..C#m..A2

e|-------0---0---0---0-------------------------------------------------------|
B|-------0---0---5---0-------------------------------------------------------|
G|-------1---2---6---2-------------------------------------------------------|
D|-------2---2---6---2-------------------------------------------------------|
A|-------2---0---4---0-------------------------------------------------------|
E|-------0---x---x---x-------------------------------------------------------|


Ending:
   
  This is the part when it slows...
e|------------------------(0)-------------------------------------------------|
B|--------0-0-0--------0------0-----------------------------------------------|
G|--------9-9-8-----9---------------------------------------------------------| 
D|-----9--9-9-9---------------------------------------------------------------|
A|---------------0------------------------------------------------------------|
E|--0-------------------------------------------------------------------------|

Comments about this tab

No comments/corrections found. Add your own

Complimentary Christian Ringtones
Dadamobile and CGR have teamed up to bring your favorite Christian artists right to your phone. Sign up today and get 10 complementary ringtones!
Tab Country
Did you know CGR has a sister site w/ country guitar tabs? Well we do! Its called Tab Country. It has a great archive with a lot of country tabs.
Rockin Tabs
Are you looking for a site that has rock guitar tabs? Then Rockintabs.com is the place for you. It is a budding site with many rock guitar tabs. Submit your tab today.
Tab Gallery
Tab Gallery has a compilation of christian, rock, and country tabs all in one place. Come visit us.